Mudvayne - Nothing To Gain Chords & Tabs

 

Nothing To Gain Chords & Tabs

Mudvayne Chords & Tabs

Version: 1 Type: Tab 0 ratings
1 star 2 stars 3 stars 4 stars 5 stars
comments

Nothing To Gain Tab

   
Tuning:(B,F#,B,E,G#,C#)

CHORUS:
|-------------------------------------------------------------------|
|-------------------------------------------------------------------|
|---------------------7-7-7-7-7-7-----5-5-5-5-5-----5-5-5-5-5-5-5-5-|
|-2/3-0-0-2-0-0-2-3-6-6-6-6-6-6-6-0-3-3-3-3-3-3-5-3-2-2-2-2-2-2-3-3-|
|-2/3-0-0-2-0-0-2-3-5-5-5-5-5-5-5-0-3-3-3-3-3-3-5-3-3-3-3-3-3-3-3-3-|
|-2/3-0-0-2-0-0-2-3-6-6-6-6-6-6-6-0-3-3-3-3-3-3-5-3-2-2-2-2-2-2-3-3-|

INTRO:
|-----------------|
|-----------------|
|-----------------|
|-7-7-7-7-7-7-7-7-|
|-5-5-5-5-5-5-5-5-|
|-----------------|

VERSE: (just dead strings with wah)
[ Tab from: http://www.guitartabs.cc/tabs/m/mudvayne/nothing_to_gain_tab.html ]
VERSE B:
|-----------------------------------------------|
|-----------------------------------------------|
|-----------------------------------------------|
|-10-10-10-10-10-10--10--10-10-10-11-10-9-9-9-9-|
|--8--8--8--8--8--8---8---8--8--8--9--8-7-7-7-7-|
|-----------------------------------------------|

VERSE C:
|---------------------------------------------------------------|
|---------------------------------------------------------------|
|-------------------4--------------------4--------------------4-|
|-0h2-0-0-0h2-0-0-0-4--0h2-0-0-0h2-0-0-0-4--0h2-0-0-0h2-0-0-0-4-|
|-0h2-0-0-0h2-0-0-0-2--0h2-0-0-0h2-0-0-0-2--0h2-0-0-0h2-0-0-0-2-|
|-0h2-0-0-0h2-0-0-0----0h2-0-0-0h2-0-0-0----0h2-0-0-0h2-0-0-0---|

|---------------|
|---------------|
|---------------|
|-0h2-0-0-0h2-0-|
|-0h2-0-0-0h2-0-|
|-0h2-0-0-0h2-0-|

BRIDGE:
|---------------------|
|---------------------|
|-10p9------10p9------|
|------10p9------10p9-|
|---------------------|
|---------------------|

INTERLUDE:
|------------------------------------|
|------------------------------------|
|---------------------------7-----10-|
|-0-0-0-0-0-0--0--0-0-0-0-0-7-0-0-10-|
|-0-0-0-0-0-0--0--0-0-0-0-0-5-0-0--8-|
|-0-0-0-0-0-0--0--0-0-0-0-0---0-0----|
Comments