Mudvayne - Nothing To Gain Chords & Tabs

 

Nothing To Gain Chords & Tabs

Mudvayne Chords & Tabs

Version: 2 Type: Bass Tab 0 ratings
1 star 2 stars 3 stars 4 stars 5 stars
comments

Nothing To Gain Bass Tab

   
This is how the song is really played, i don't know what the other people were
thinking when they wrote those tabs; they didn't even spell the name of the song right.

5 string, top string tuned to B (B,E,A,D,G)
~ = Let ring, h = hammer, / = slide, x = mute

G------------------------------------
D------------------------------------
A------------------------------------
E-0~-/6~-3~-2~-----------------------
B------------------------------------

G--------------9-----------7-----------------
D----------9-7---7-----0-5---5-0-------------
A------5/9-----------------------3-2---------
E-0~---------------------------------3-2-0-1-
B--------------------------------------------

G--------------9-----------6-7-6-6-7-9-------
D----------9-7---7-----9-9-------------------
A------5/9-----------------------------------
E-0~-----------------------------------------
B--------------------------------------------

G-------------------------------------------------------------------
D-----------------------------------------------------------4h5-4-0-
A-------------------------------------------------------------------
E----------------------------------------5-5------------------------
B-3-0-0-2-0-0-2h3/6-6-6-6-6-6-6-6--4-4-4-----3h5-3-2-2-2-2----------

G---------------------------------------------------4---------------
D----------------------------------------6--------3---3-------------
A--------------------------------------5---5-4--4-------4-----------
E-------------------------------------------------------------------
B-3-0-0-2-0-0-2h3/6-6-6-6-6-6-6-6--4-4---------------------3-0------

G-------------------------------------------------------------------
D--------------------------------------------------4h5-4h5-4h5-4----
A-------------------------------------------------------------------
E----------------------------------------5-5------------------------
B-3-0-0-2-0-0-2h3/6-6-6-6-6-6-6-6--4-4-4-----3h5-3------------------

G--------------------------------
D--------------------------------
A---3----------------------------
E---------5\-----------3/5-5-----
B-2---3h4----0-0---3-2-------3---

G--------------------------------
D------------------------6-------
A---3--------------3/5-5---------
E---------5\---------------------
B-2---3h4----2-3-2---------------

G--------------------------------
D--------------------------------
A---3----------------------------
E---------5\-----------3/5-5-----
B-2---3h4----0-0---3-2-------3---

G--------------------------------
D------------------------6-------
A---3--------------3/5-5---------
E---------5\---------------------
B-2---3h4----2-3-2---------------

G---------------5---------------5---------------5-----------
D---------------4---------------4---------------4-----------
A-----------------------------------------------------------
E-----------------------------------------------------------
B-0-0-0-2-0-0-0---0-0-0-2-0-0-0---0-0-0-2-0-0-0---0-0-0-2-0-

Rest for the 1st half of the verse.

G--------------------------------
D--------------------------------
A---3----------------------------
E---------5\-----------3/5-5-----
B-2---3h4----0-0---3-2-------3---


G--------------------------------
D------------------------6-------
A---3--------------3/5-5---------
E---------5\---------------------
B-2---3h4----2-3-2---------------

G---------------5---------------5---------------5-----------
D---------------4---------------4---------------4-----------
A-----------------------------------------------------------
E-----------------------------------------------------------
B-0-0-0-2-0-0-0---0-0-0-2-0-0-0---0-0-0-2-0-0-0---0-0-0-2-0-

G-------------------------------------------------------------------
D-----------------------------------------------------------4h5-4-0-
A-------------------------------------------------------------------
E----------------------------------------5-5------------------------
B-3-0-0-2-0-0-2h3/6-6-6-6-6-6-6-6--4-4-4-----3h5-3-2-2-2-2----------
[ Tab from: http://www.guitartabs.cc/tabs/m/mudvayne/nothing_to_gain_btab_ver_2.html ]
G---------------------------------------------------4---------------
D----------------------------------------6--------3---3-------------
A--------------------------------------5---5-4--4-------4-----------
E-------------------------------------------------------------------
B-3-0-0-2-0-0-2h3/6-6-6-6-6-6-6-6--4-4---------------------3-0------

G-------------------------------------------------------------------
D-----------------------------------------------------------4h5-4-0-
A-------------------------------------------------------------------
E----------------------------------------5-5------------------------
B-3-0-0-2-0-0-2h3/6-6-6-6-6-6-6-6--4-4-4-----3h5-3-2-2-2-2----------

G---------------------------------------------------4---------------
D----------------------------------------6--------3---3-------------
A--------------------------------------5---5-4--4-------4-----------
E-------------------------------------------------------------------
B-3-0-0-2-0-0-2h3/6-6-6-6-6-6-6-6--4-4---------------------3-0------

G--------------------------------
D--------------------------------
A--------------------------------
E--------------------------------
B-0---2-0----3-2-0--0--x-0--x-0--

G---------------------------5--7-
D---------------------------4--6-
A--------------------------------
E--------------------------------
B-0-0-0-0-0-0-x-0-0-x-0-0-0------

G---------------------------5--7-
D---------------------------4--6-
A--------------------------------
E--------------------------------
B-0-0-0-0-0-0-x-0-0-x-0-0-0------

G---------------------------5--7-
D---------------------------4--6-
A--------------------------------
E--------------------------------
B-0-0-0-0-0-0-x-0-0-x-0-0-0------

G---------------------------5--7-
D---------------------------4--6-
A--------------------------------
E--------------------------------
B-0-0-0-0-0-0-x-0-0-x-0-0-0------

(You'll have to listen REAL close to the song to hear this part)

G------------------------4-----5-7--
D--------------------------3--------
A-----2-----2-----2----2-----3------
E-----------------------------------
B-0-0---0-0---0-0-------------------

G------------------------4-----5-7--
D--------------------------3--------
A-----2-----2-----2----2-----3------
E-----------------------------------
B-0-0---0-0---0-0-------------------

G---------------------------4--7-
D--------------------------------
A--------------------------------
E--------------------------------
B-0-0-0-0-0-0-x-0-0-x-0-0-0------

G---------------------------4--7-
D--------------------------------
A--------------------------------
E--------------------------------
B-0-0-0-0-0-0-x-0-0-x-0-0-0------

G---------------------------4--7-
D--------------------------------
A--------------------------------
E--------------------------------
B-0-0-0-0-0-0-x-0-0-x-0-0-0------

G---------------------------4--7-
D--------------------------------
A--------------------------------
E--------------------------------
B-0-0-0-0-0-0-x-0-0-x-0-0-0------

G-------------------------------------------------------------------
D-----------------------------------------------------------4h5-4-0-
A-------------------------------------------------------------------
E----------------------------------------5-5------------------------
B-3-0-0-2-0-0-2h3/6-6-6-6-6-6-6-6--4-4-4-----3h5-3-2-2-2-2----------

G---------------------------------------------------4---------------
D----------------------------------------6--------3---3-------------
A--------------------------------------5---5-4--4-------4-----------
E-------------------------------------------------------------------
B-3-0-0-2-0-0-2h3/6-6-6-6-6-6-6-6--4-4---------------------3-0------

G-------------------------------------------------------------------
D-----------------------------------------------------------4h5-4-0-
A-------------------------------------------------------------------
E----------------------------------------5-5------------------------
B-3-0-0-2-0-0-2h3/6-6-6-6-6-6-6-6--4-4-4-----3h5-3-2-2-2-2----------

G---------------------------------------------------4---------------
D----------------------------------------6--------3---3-------------
A--------------------------------------5---5-4--4-------4-----------
E-------------------------------------------------------------------
B-3-0-0-2-0-0-2h3/6-6-6-6-6-6-6-6--4-4---------------------3-0------

(Plays the intro again as conclusion)
Comments