Mudvayne - Not Falling Chords & Tabs

 

Not Falling Chords & Tabs

Mudvayne Chords & Tabs

Version: 6 Type: Tab 0 ratings
1 star 2 stars 3 stars 4 stars 5 stars
comments

Not Falling Tab

   
Author/Band: Mudvayne
Song: Not Falling
Length: 4:03
Album: The End Of All Things To Come
Release Date: November 19 2002
Tuning: Drop D, Down 1 1/2 Steps (B,F#,B,E,G#,C#)
Tabbed by: thomas hassler
Email: slip_knot_79@hotmail.com

Key
h - hammer on
p - pull off
* - palm mute
x - mute
/ - slide up
\ - slide down

Hey guys I thought I'd try and tab Mudvayne's new single, 
oh man if you guys are big fans of these guys you's are gonna
love they're new album already I'm drooling with excitement
Plus they've changed their names
Kud - Chud
Gurrg - Guug
Spag - Spug
Ryknow - Ru D

Anyway if you guys wanna listen to it just to www.shoutweb.com/
and then on the left hand side of the page near the top it should
say "artist News" just click on that and then scroll down a bit
you should find the small caption about Mudvayne and it will say
click "here" to listen to new song and there you go

Tip: I recommend that where it says "here" right click on it then
go save target as then wait til it downloads it then once it has
just click on "here" again and it will play the whole song all the
way through and you wont have to download it again.
Oh well here it is enjoy

Intro A(0:00)
----------------------------------------|
----------------------------------------|
--655555555555555565555555555555555-----|
--xxxxxxxxxxxxxxxxxxxxxxxxxxxxxxxxx-----|
--433333333333333343333333333333333-----|
----------------------------------------|

Intro B(0:07)					     		      Fill (0:18)
----------------------------------------------------|--------------------|
----------------------------------------------------|--------------------|
-------------------------------11111111-10101010----|--------------------|
--------------------------------x-x-x-x--x-x-x-x----|--------------------|
-1h4p1-1-1-1h4p1-1-1-1h4p1-1-1--9-9-9-9--8-8-8-8----|-1h4p1-1-1-1h4p1----|
-1h4p1-1-1-1h4ph-1-1-1h4p1-1-1----------------------|-1h4p1-1-1-1h4p1----|

Verse (0:20)
---------------------------------------------------------------------|
---------------------------------------------------------------------|
1111111111111111101010101010101010-888888888-13131313-151515151515---|
-x-x-x-x-x-x-x-x-x-x-x-x-x-x-x-x-x-xxxxxxxxx--x-x-x-x--x-x-x-x-x-x---|
-9-9-9-9-9-9-9-9-8-8-8-8-8-8-8-8-8-666666666-11111111-131313131313---|
---------------------------------------------------------------------|

---------------------------|
---------------------------|
-10101010101010--8888888---|
--x-x-x-x-x-x-x--xxxxxxx---|
--8-8-8-8-8-8-8--6666666---|
---------------------------|

---------------------------------------------------------------------|
---------------------------------------------------------------------|
1111111111111111101010101010101010-888888888-13131313-151515151515---|
-x-x-x-x-x-x-x-x-x-x-x-x-x-x-x-x-x-xxxxxxxxx--x-x-x-x--x-x-x-x-x-x---|
-9-9-9-9-9-9-9-9-8-8-8-8-8-8-8-8-8-666666666-11111111-131313131313---|
---------------------------------------------------------------------|

---------------------------|
---------------------------|
-10101010101010--8888888---|
--x-x-x-x-x-x-x--xxxxxxx---|
--8-8-8-8-8-8-8--6666666---|
---------------------------|

Chorus 2x(0:44)
---------------------------------------------------|
---------------------------------------------------|
------------------------------11111111-10101010----|
-------------------------------x-x-x-x--x-x-x-x----|
-1h4p1-1-1-1h4p1-1-1-1h4p1-1-1-9-9-9-9--8-8-8-8----|
-1h4p1-1-1-1h4p4-1-1-1h4p1-1-1---------------------|

---------------------------------------------------|
---------------------------------------------------|
------------------------------11111111-10101010----|
-------------------------------x-x-x-x--x-x-x-x----|
-1h4p1-1-1-1h4p1-1-1-1h4p1-1-1-9-9-9-9--8-8-8-8----|
-1h4p1-1-1-1h4p4-1-1-1h4p1-1-1---------------------|

---------------------------------------------------|
---------------------------------------------------|
------------------------------11111111-10101010----|
-------------------------------x-x-x-x--x-x-x-x----|
-1h4p1-1-1-1h4p1-1-1-1h4p1-1-1-9-9-9-9--8-8-8-8----|
-1h4p1-1-1-1h4p4-1-1-1h4p1-1-1---------------------|

(0:55)			     Fill
---------------------------|--------------------------|
---------------------------|--------------------------|
-6666-6666-66-6666-6666----|--------------------------|
-4444-4444-44-4444-4444----|--------------------------|
-4444-4444-44-4444-4444----|-1h4p1-1-1h4p1-1h4p1-1----|
-4444-4444-44-4444-4444----|-1h4p1-1-1h4p1-1h4p1-1----|

Verse (1:15)2x
---------------------------------------------------------------------|
---------------------------------------------------------------------|
1111111111111111101010101010101010-888888888-13131313-151515151515---|
-x-x-x-x-x-x-x-x-x-x-x-x-x-x-x-x-x-xxxxxxxxx--x-x-x-x--x-x-x-x-x-x---|
-9-9-9-9-9-9-9-9-8-8-8-8-8-8-8-8-8-666666666-11111111-131313131313---|
---------------------------------------------------------------------|

---------------------------------------------------------------------|
---------------------------------------------------------------------|
1111111111111111101010101010101010-888888888-13131313-151515151515---|
-x-x-x-x-x-x-x-x-x-x-x-x-x-x-x-x-x-xxxxxxxxx--x-x-x-x--x-x-x-x-x-x---|
-9-9-9-9-9-9-9-9-8-8-8-8-8-8-8-8-8-666666666-11111111-131313131313---|
---------------------------------------------------------------------|

---------------------------|
---------------------------|
-10101010101010--8888888---|
--x-x-x-x-x-x-x--xxxxxxx---|
--8-8-8-8-8-8-8--6666666---|
---------------------------|
[ Tab from: http://www.guitartabs.cc/tabs/m/mudvayne/not_falling_tab_ver_6.html ]
---------------------------------------------------------------------|
---------------------------------------------------------------------|
1111111111111111101010101010101010-888888888-13131313-151515151515---|
-x-x-x-x-x-x-x-x-x-x-x-x-x-x-x-x-x-xxxxxxxxx--x-x-x-x--x-x-x-x-x-x---|
-9-9-9-9-9-9-9-9-8-8-8-8-8-8-8-8-8-666666666-11111111-131313131313---|
---------------------------------------------------------------------|

---------------------------|
---------------------------|
-10101010101010--8888888---|
--x-x-x-x-x-x-x--xxxxxxx---|
--8-8-8-8-8-8-8--6666666---|
---------------------------|

---------------------------------------------------------------------|
---------------------------------------------------------------------|
1111111111111111101010101010101010-888888888-13131313-151515151515---|
-x-x-x-x-x-x-x-x-x-x-x-x-x-x-x-x-x-xxxxxxxxx--x-x-x-x--x-x-x-x-x-x---|
-9-9-9-9-9-9-9-9-8-8-8-8-8-8-8-8-8-666666666-11111111-131313131313---|
---------------------------------------------------------------------|
					Fill
---------------------------|----------------------|
---------------------------|----------------------|
-10101010101010--8888888---|-11111111-10101010----|
--x-x-x-x-x-x-x--xxxxxxx---|--x-x-x-x--x-x-x-x----|
--8-8-8-8-8-8-8--6666666---|--9-9-9-9--8-8-8-8----|
---------------------------|----------------------|

Chorus 2x(2:00)
---------------------------------------------------|
---------------------------------------------------|
------------------------------11111111-10101010----|
-------------------------------x-x-x-x--x-x-x-x----|
-1h4p1-1-1-1h4p1-1-1-1h4p1-1-1-9-9-9-9--8-8-8-8----|
-1h4p1-1-1-1h4p4-1-1-1h4p1-1-1---------------------|

---------------------------------------------------|
---------------------------------------------------|
------------------------------11111111-10101010----|
-------------------------------x-x-x-x--x-x-x-x----|
-1h4p1-1-1-1h4p1-1-1-1h4p1-1-1-9-9-9-9--8-8-8-8----|
-1h4p1-1-1-1h4p4-1-1-1h4p1-1-1---------------------|

---------------------------------------------------|
---------------------------------------------------|
------------------------------11111111-10101010----|
-------------------------------x-x-x-x--x-x-x-x----|
-1h4p1-1-1-1h4p1-1-1-1h4p1-1-1-9-9-9-9--8-8-8-8----|
-1h4p1-1-1-1h4p4-1-1-1h4p1-1-1---------------------|

        			     Fill
---------------------------|--------------------------|
---------------------------|--------------------------|
-6666-6666-66-6666-6666----|--------------------------|
-4444-4444-44-4444-4444----|--------------------------|
-4444-4444-44-4444-4444----|-1h4p1-1-1h4p1-1h4p1-1----|
-4444-4444-44-4444-4444----|-1h4p1-1-1h4p1-1h4p1-1----|

Bridge (2:31)			  Fill (do it twice)
-8888888888888888888888------|---------------------------|
-7777777777777777777777------|---------------------------|
-5555555555555555555555------|---------------------------|
-----------------------------|---------------------------|
-----------------------------|-1h4p1-1-1h4p1-1h4p1-1-----|
-----------------------------|-1h4p1-1-1h4p1-1h4p1-1-----|
					   * * * * * * * * * * *
-8888888888888888888888------|---------------------------|
-7777777777777777777777------|---------------------------|
-5555555555555555555555------|---------------------------|
-----------------------------|---------------------------|
-----------------------------|-1h4p1-1-1h4p1-1h4p1-1-----|
-----------------------------|-1h4p1-1-1h4p1-1h4p1-1-----|
					   * * * * * * * * * * *
					  Fill 4x
-8888888888888888888888------|---------------------------|
-7777777777777777777777------|---------------------------|
-5555555555555555555555------|---------------------------|
-----------------------------|---------------------------|
-----------------------------|-1h4p1-1-1h4p1-1h4p1-1-----|
-----------------------------|-1h4p1-1-1h4p1-1h4p1-1-----|
					   *   * * * * * * * * *
(2:54)
-88888888888888888888888888888888888---|
-77777777777777777777777777777777777---|
-55555555555555555555555555555555555---|
---------------------------------------|
---------------------------------------|
---------------------------------------|

(3:01)
--99999999999-----------9999999999--------------|
--88888888888-----------8888888888--------------|
--66666666666-----------6666666666--------------|
------------------------------------------------|
------------------------------------------------|
---------------1/7\1/7\------------1/7\1/7\-----|

(3:09)2x
--99999999999-----------9999999999--------------|
--88888888888-----------8888888888--------------|
--66666666666-----------6666666666--------------|
---------------1/7\1/7\------------1/7\1/7\-----|
---------------1/7\1/7\------------1/7\1/7\-----|
---------------1/7\1/7\------------1/7\1/7\-----|

(3:23)
-99999999999--999999--99999999999-----|
-88888888888--888888--88888888888-----|
-66666666666--666666--66666666666-----|
--------------------------------------|
--------------------------------------|
--------------------------------------|

Chorus 2x (3:29)
---------------------------------------------------|
---------------------------------------------------|
------------------------------11111111-10101010----|
-------------------------------x-x-x-x--x-x-x-x----|
-1h4p1-1-1-1h4p1-1-1-1h4p1-1-1-9-9-9-9--8-8-8-8----|
-1h4p1-1-1-1h4p4-1-1-1h4p1-1-1---------------------|

---------------------------------------------------|
---------------------------------------------------|
------------------------------11111111-10101010----|
-------------------------------x-x-x-x--x-x-x-x----|
-1h4p1-1-1-1h4p1-1-1-1h4p1-1-1-9-9-9-9--8-8-8-8----|
-1h4p1-1-1-1h4p4-1-1-1h4p1-1-1---------------------|

---------------------------------------------------|
---------------------------------------------------|
------------------------------11111111-10101010----|
-------------------------------x-x-x-x--x-x-x-x----|
-1h4p1-1-1-1h4p1-1-1-1h4p1-1-1-9-9-9-9--8-8-8-8----|
-1h4p1-1-1-1h4p4-1-1-1h4p1-1-1---------------------|

			           End Riff
---------------------------|--------------------------|
---------------------------|--------------------------|
-6666-6666-66-6666-6666----|--------------------------|
-4444-4444-44-4444-4444----|--------------------------|
-4444-4444-44-4444-4444----|-1h4p1-1-1h4p1-1h4p1-1----|
-4444-4444-44-4444-4444----|-1h4p1-1-1h4p1-1h4p1-1----|
Comments