Mudvayne - Not Falling Chords & Tabs

 

Not Falling Chords & Tabs

Mudvayne Chords & Tabs

Version: 4 Type: Tab 0 ratings
1 star 2 stars 3 stars 4 stars 5 stars
comments

Not Falling Tab

   
C G C F A D
Intro:
d-----------------------------------------------------------------
a-----------------------------------------------------------------
f-5\4-4-4-4-4---4-4-4-4-4-4---4-4-5\4-4-4-4-4---4-4-4-4-4-4---4-4-
c-x-x-x-x-x-x---x-x-x-x-x-x---x-x-x-x-x-x-x-x---x-x-x-x-x-x---x-x-
g-3\2-2-2-2-2---2-2-2-2-2-2---2-2-3\2-2-2-2-2---2-2-2-2-2-2---2-2-
c-----------------------------------------------------------------

d-----------------------------------------------------------------
a-----------------------------------------------------------------
f-5\4-4-4-4-4---4-4-4-4-4-4---4-4-5\4-4-4-4-4----4---4------------
c-x-x-x-x-x-x---x-x-x-x-x-x---x-x-x-x-x-x-x-x----x---x------------
g-3\2-2-2-2-2---2-2-2-2-2-2---2-2-3\2-2-2-2-2----2---2----3---0-3-
c---------------------------------------------------------3---0-3-

x3
d-------------------------------------------------------
a-------------------------------------------------------
f-------------------------------------10101010-9-9-9-9--
c--------------------------------------x-x-x-x-x-x-x-x--
g-0-3-0----0-3-0-3-0----0-3-0-3-0-3-0--8-8-8-8-7-7-7-7--
c-0-3-0----0-3-0-3-0----0-3-0-3-0-3-0-------------------

d-----------------------
a-----------------------
f-----------------------
c-----------------------
g-0-3-0----0-3-0-3-0----
c-0-3-0----0-3-0-3-0----

Verse 1: (this sounds better this way)

d-----------------------------------------------------------------
a-----------------------------------------------------------------
f-10---10-1010-10--10101010--10-1010--9----9--9--9--9-9--9---9--9-
c--0----0--0-0--0---0-0-0-0---0--0-0--0----0--0--0--0-0--0---0--0-
g--8----8--8-8--8---8-8-8-8---8--8-8--7----7--7--7--7-7--7---7--7-
c--0----0--0-0--0---0-0-0-0---0--0-0--0----0--0--0--0-0--0---0--0-

d-------------------------------------------------------
a-------------------------------------------------------
f-7---7-7--7--7--7-7--7--7---7-7--12---12-12-12-12--10--
c-0---0-0--0--0--0-0--0--0---0-0---0----0--0--0--0---0--
g-5---5-5--5--5--5-5--5--5---5-5--10---10-10-10-10---8--
c-0---0-0--0--0--0-0--0--0---0-0---0----0--0--0--0---0--

Fig. 1

d-----------------------------------------------------------------
a-----------------------------------------------------------------
f-14---14-14-14--14-14-14-14\12--9---9-9--9--9--9-9-9--7--7-7-7-7-
c--0----0--0--0---0--0--0--0--0--0---0-0--0--0--0-0-0--0--0-0-0-0-
g-12---12-12-12--12-12-12-12\10--7---7-7--7--7--7-7-7--5--5-5-5-5-
c--0----0--0--0---0--0--0--0--0--0---0-0--0--0--0-0-0--0--0-0-0-0-

d-----------------------------------------------------------------
a-----------------------------------------------------------------
f-10---10-1010-10--10101010--10-1010--9----9--9--9--9-9--9---9--9-
c--0----0--0-0--0---0-0-0-0---0--0-0--0----0--0--0--0-0--0---0--0-
g--8----8--8-8--8---8-8-8-8---8--8-8--7----7--7--7--7-7--7---7--7-
c--0----0--0-0--0---0-0-0-0---0--0-0--0----0--0--0--0-0--0---0--0-

d-------------------------------------------------------
a-------------------------------------------------------
f-7---7-7--7--7--7-7--7--7---7-9--12---12-12-12-12--10--
c-0---0-0--0--0--0-0--0--0---0-0---0----0--0--0--0---0--
g-5---5-5--5--5--5-5--5--5---5-7--10---10-10-10-10---8--
c-0---0-0--0--0--0-0--0--0---0-0---0----0--0--0--0---0--

d-----------------------------------------------------------------
a-----------------------------------------------------------------
f-14---14-14-14--14-14-14-14\12--9---9-9--9--9--9-9-9--7--7-7-7-7-
c--0----0--0--0---0--0--0--0--0--0---0-0--0--0--0-0-0--0--0-0-0-0-
g-12---12-12-12--12-12-12-12\10--7---7-7--7--7--7-7-7--5--5-5-5-5-
c--0----0--0--0---0--0--0--0--0--0---0-0--0--0--0-0-0--0--0-0-0-0-

end Fig. 1

Chorus:

x3
d-------------------------------------------------------
a-------------------------------------------------------
f-------------------------------------10101010-9-9-9-9--
c--------------------------------------x-x-x-x-x-x-x-x--
g-0-3-0----0-3-0-3-0----0-3-0-3-0-3-0--8-8-8-8-7-7-7-7--
c-0-3-0----0-3-0-3-0----0-3-0-3-0-3-0-------------------

d-------------------------------------------------------
a-------------------------------------------------------
f-5-5-5----5-5-5-5----5-----5-5-5----5-5-5-5-1010-9-9-9-
c-3-3-3----3-3-3-3----3-----3-3-3----3-3-3-3--x-x-x-x-x-
g-3-3-3----3-3-3-3----3-----3-3-3----3-3-3-3--8-8-7-7-7-
c-3-3-3----3-3-3-3----3-----3-3-3----3-3-3-3------------

before 2nd V:

d-----------------------
a-----------------------
f-----------------------
c-----------------------
g-0-3-0----0-3-0-3-0----
c-0-3-0----0-3-0-3-0----

2nd Verse:

d-----------------------------------------------------------------
a-----------------------------------------------------------------
f-10--10-10-10-10--10------9--9-9-9-9--9------7--7-7-7-7--7-------
c--0---0--0--0--0---0------0--0-0-0-0--0------0--0-0-0-0--0-------
g--8---8--8--8--8---8------7--7-7-7-7--7------5--5-5-5-5--5-------
c--0---0--0--0--0---0------0--0-0-0-0--0------0--0-0-0-0--0-------

d-----------------------------------------------------------------
a-----------------------------------------------------------------
f-12--12-12-12-12-10------14---14-14-14---14-14-14-14--14--14-----
c--0---0--0--0--0--0-------0----0--0--0----0--0--0--0---0---0---0-
g--8---8--8--8--8--8------12---12-12-12---12-12-12-12--12--12---0-
c--0---0--0--0--0--0-------0----0--0--0----0--0--0--0---0---0---0-
[ Tab from: http://www.guitartabs.cc/tabs/m/mudvayne/not_falling_tab_ver_4.html ]
d-----------------------------------------------------------------
a-----------------------------------------------------------------
f-10--10-10-10-10--10------9--9-9-9-9--9------7--7-7-7-7--7-------
c--0---0--0--0--0---0------0--0-0-0-0--0------0--0-0-0-0--0-------
g--8---8--8--8--8---8------7--7-7-7-7--7------5--5-5-5-5--5-------
c--0---0--0--0--0---0------0--0-0-0-0--0------0--0-0-0-0--0-------

d-----------------------------------------------------------------
a-----------------------------------------------------------------
f-12--12-12-12-12-10------14---14-14-14---14-14-14-14--14--14-----
c--0---0--0--0--0--0-------0----0--0--0----0--0--0--0---0---0---0-
g--8---8--8--8--8--8------12---12-12-12---12-12-12-12--12--12---0-
c--0---0--0--0--0--0-------0----0--0--0----0--0--0--0---0---0---0-

Fig. 1, then

d-----------------------------------------------------------------
a-----------------------------------------------------------------
f-10--10-10-10--10-10-10-10--10-10--9---9-9-9---9-9---9--9--9--9--
c--0---0--0--0---0--0--0--0---0--0--0---0-0-0---0-0---0--0--0--0--
g--8---8--8--8---8--8--8--8---8--8--7---7-7-7---7-7---7--7--7--7--
c--0---0--0--0---0--0--0--0---0--0--0---0-0-0---0-0---0--0--0--0--

d-------------------------------------------------------
a-------------------------------------------------------
f-7---7-7--7--7--7-7--7--7---7-7--12---12-12-12-12--10--
c-0---0-0--0--0--0-0--0--0---0-0---0----0--0--0--0---0--
g-5---5-5--5--5--5-5--5--5---5-5--10---10-10-10-10---8--
c-0---0-0--0--0--0-0--0--0---0-0---0----0--0--0--0---0--

d-----------------------------------------------------------------
a-----------------------------------------------------------------
f-14---14-14-14--14-14-14-14\12--9---9-9--9--9--9-9-9--7--7-7-7-7-
c--0----0--0--0---0--0--0--0--0--0---0-0--0--0--0-0-0--0--0-0-0-0-
g-12---12-12-12--12-12-12-12\10--7---7-7--7--7--7-7-7--5--5-5-5-5-
c--0----0--0--0---0--0--0--0--0--0---0-0--0--0--0-0-0--0--0-0-0-0-

d-------------------------------
a-------------------------------
f-7---------10-10-10-10-9-9-9-9-
c-0----------0--0--0--0-0-0-0-0-
g-5----------8--8--8--8-7-7-7-7-
c-0----------0--0--0--0-0-0-0-0-

Bridge: x3

d-----------------------------------------------------------------
a-----------------------------------------------------------------
f-5\4-4-4-4-4--4---4-4-4-4-4---4-4-4---4-4-4-4-4---4-4-4-4-4--4-4-
c-x-x-x-x-x-x--x---x-x-x-x-x---x-x-x---x-x-x-x-x---x-x-x-x-x--x-x-
g-3\2-2-2-2-2--2---2-2-2-2-2---2-2-2---2-2-2-2-2---2-2-2-2-2--2-2-
c----------------------------------3---3-3-3-3-3---3-3-3-3-3--3-3-

gtr. 1

pm
d-----------------------------------------------------------------
a-----------------------------------------------------------------
f-----------------------------------------------------------------
c-----------------------------------------------------------------
g-----------------------------------------------------------------
c-3-2-0-2-0-0-3-2-0-2-0-0-3-2-0---3-2-0-2-0-0-3-2-0-2-0-0-3-2-0---

gtr. 2 w/ wah

d-----------------------------------------------------------------
a-15----------15----------15------15----------15----------15------
f-13----------13----------13------13----------13----------13------
c-12----------12----------12------12----------12----------12------
g-----------------------------------------------------------------
c-----------------------------------------------------------------

then,

gtr. 1

pm
d----------------------------------
a----------------------------------
f----------------------------------
c----------------------------------
g----------------------------------
c-3-2-0-2-0-0-3-2-0-2-0-0-3-2-0----

gtr. 2 w/ wah

d----------------------------------
a-15------15------15------15-------
f-13------13------13------13-------
c-12------12------12------12-------
g----------------------------------
c----------------------------------

x2
d-----------------------------------------------------------------
a-----------------------------------------------------------------
f-5\4-4-4-4-4--4---4-4-4-4-4---4-4-4---4-4-4-4-4---4-4-4-4-4--4-4-
c-x-x-x-x-x-x--x---x-x-x-x-x---x-x-x---x-x-x-x-x---x-x-x-x-x--x-x-
g-3\2-2-2-2-2--2---2-2-2-2-2---2-2-2---2-2-2-2-2---2-2-2-2-2--2-2-
c----------------------------------3---3-3-3-3-3---3-3-3-3-3--3-3-

x2
d------------------------------------------------
a------------------------------------------------
f-17-17-17-17-17-17-17-17------------------------
c-16-16-16-16-16-16-16-16------------------------
g-15-15-15-15-15-15-15-15--0-0--6\----0-0--6\----
c--------------------------0-0--6\----0-0--6\----

d------------------------------------------------
a------------------------------------------------
f-17-17-17-17------------------------------------
c-16-16-16-16------------------------------------
g-15-15-15-15-----6\-------0-0--6\----0-0--6\----
c-----------------6\-------0-0--6\----0-0--6\----

x3
d------------------------------------------------
a------------------------------------------------
f-17-17-17-17-17-17-17-17------------------------
c-16-16-16-16-16-16-16-16------------------------
g-15-15-15-15-15-15-15-15--0-0--6\----0-0--6\----
c--------------------------0-0--6\----0-0--6\----


d-----------------------------------------------------------------
a-----------------------------------------------------------------
f-17-17-17-17-17-17-17-17-17-17-17----17-17-17-17-17--------------
c-16-16-16-16-16-16-16-16-16-16-16----16-16-16-16-16--------------
g-15-15-15-15-15-15-15-15-15-15-15----15-15-15-15-15--------------
c-----------------------------------------------------------------

End with Chorus
Comments