Mudvayne - Not Falling Chords & Tabs

 

Not Falling Chords & Tabs

Mudvayne Chords & Tabs

Version: 3 Type: Bass Tab 0 ratings
1 star 2 stars 3 stars 4 stars 5 stars
comments

Not Falling Bass Tab

   
--------------------------------------------------------------------------------
                           Not Falling - Mudvayne
--------------------------------------------------------------------------------


Artist: Mudvayne
Song title: Not Falling
Albulm: The End Of All Things To Come (Track 3)
Tabbed by: Zero is great man
Tuning Whole step down for a 5 string bass: (ADGCF)

Intro Part 1:
F|--------------------------------|  
C|-10/9-9-9-9-9-9-9-9-9-9-9-9-9-9-|
G|--------------------------------|(x3)
D|--------------------------------|
A|--------------------------------|

Intro Part 2:
F|-10-9p-9-9-9-9-9-9---------|
C|---------------------------|
G|---------------------------|
D|-------------------7-1-----|
A|-----------------------5-6-|

Intro Part 3:
F|-----------------------------------------------|
C|-------------------------------1-1-1-1-0-0-0-0-|
G|-------------------------------1-1-1-1-0-0-0-0-|
D|-----------------------------------------------|
A|-3-6-3-3-6-3-6-3--3-6-3-6-3-6------------------|

Intro Part 4:
F|------------------|
C|------------------|
G|------------------|
D|------------------|
A|-3-6-3--3-6-3-6-3-|

Verse Part 1: "Always, known in all my time...", 
F|-------------------------------------------------------3/5-5--3-3--3-|
C|--------------7------------------5-5-7h-5------------3---------------|
G|-5--5-5-5-5-5---5-5--5--3--3-3-3----------3--1--1-1-1----------------|
D|---------------------------------------------------------------------|
A|---------------------------------------------------------------------|

Verse part 2: "Reflect as I realize"    
F|------------------|
C|------------------|
G|------------------|
D|-5-5-5-3--5-5--3--|
A|------------------|

Verse Part 3: "That all I need is to find
F|-----------------------------------------------------|
C|-----------------------------------------------------|
G|-----------------------------------------------------|
D|-1--1-1-1--1-3-5-5-1-0--0-0-0-0---1-3-1-1--3-x-x-x-x-|
A|--------------------------------3--------------------|
  
Verse Part 4:
F|-------------|
C|-------------|
G|-------------|
D|-------------|
A|-3--3-3-3--3-|

Vers Part 5: The middle pillar path.."
F|-----------------------------------------------------------------|
C|----------7-7-9p--9-9-----------5-5/7-5-5--------------3/10-10-8-|
G|-0/5--5-5-------------5--3--3-3-----------3--1--1-1--1-----------|
D|-----------------------------------------------------------------|
A|--------------------------------------------------------------1--|
[ Tab from: http://www.guitartabs.cc/tabs/m/mudvayne/not_falling_btab_ver_3.html ]
Verse Part 6:
F|-----------------|
C|-----------------|
G|-0-0-0-0--0-0----|
D|---------------3-|
A|-----------------|

Verse Part: "Sinners, casting stones at me...", 
F|------------------------------------------------------------------|
C|------------------------------------------------------------------|
G|------------------------------------------------------------------|
D|----------1/5-5-5-3-0--0-0-0-0---1-3-1-1--3-x-x-x-x---------------|
A|-6--6-6-6----------------------3---------------------3--3-3-3-3-3-|

Chorus Part 1: "I, I stand, Not crawling, not falling down"
               "I, I bleed,"
F|---------------------------------------------------|
C|-----------------------------------1-1-1-1-0-0-0-0-|
G|-----------------------------------1-1-1-1-0-0-0-0-|
D|---------------------------------------------------|
A|-3-6-3--3-6-3-6-3--3-6-3-6-3-3-6-3-----------------|

Chorus Part 2: "The Demons, that drag me down."
F|------------------------------------------------------|
C|----------------3-3-3-3-3-----------------------------|
G|-------------------------------------------3-3--------|
D|------------------------------------------------------|
A|-6-6-6--6-6-6-6-----------6-6-6-6--6-6-6-6-----5-5--5-|

Bridge Part 1: "Come... play... kill..." 
F|---------------------------------------------------------------|
C|-10/9-9-9-9-9-9-9-9-9-9-9-9-9-9--3-3-3-3-3-3-3-3-3-3-3-3-3-3-3-|
G|---------------------------------------------------------------|
D|---------------------------------------------------------------|

Bridge Part 2: "Refuse my body, refuse my shadow"
F|-------------------------------|
C|-------------------------------|
G|-------------------------------|
D|-------------------------------|
A|-6-5-3-5-3-3-6-5-3-5-6-6-6-5-3-|

Bridge Part 3: "Just be"
F|-------------------------------------------|
C|-15-15-15-15-15-15-15-15-------------------|
G|-15-15-15-15-15-15-15-15-------------------|
D|-------------------------------------------|
A|-------------------------3--3--/9-3--3--/9-|    

Outro:(End on this)
F|------------------|
C|------------------|
G|------------------|
D|------------------|
A|-3-6-3--3-6-3-6-3-|

| x: Muted note
| /: Slide up
| \: slide down
| p: pull off
| h: hammer on

Man this song is hard to play, I tried to learn it by those other tabs,
but the tunning was too wierd, so I got my 5 sting bass and just tunned
it down and it sounded great, hope you like this too.  Feel free to comment,
correct, or embarrass , bad mouth or whatever.
-------------------------------------------------------------------------------
Comments