Mudvayne - Not Falling Chords & Tabs

 

Not Falling Chords & Tabs

Mudvayne Chords & Tabs

Version: 1 Type: Bass Tab 0 ratings
1 star 2 stars 3 stars 4 stars 5 stars
comments

Not Falling Bass Tab

   
song: Not Falling
band: Mudvayne
album: The End Of All Things To Come
tabbed by: Ian 
comments: This song RULES!!! I'm not too sure about the verses so any help is welcome, but don't forget tuning is still B F# B E

intro   (0:00)
E -655555555555555565555555555555555-----|
B -xxxxxxxxxxxxxxxxxxxxxxxxxxxxxxxxx-----|
F#---------------------------------------|
B ---------------------------------------|
   st...............................
chorus   (0:07)
E -----------------------------------------------
B -----------------------------------------------
F#-------------------------------9-9-9-9-8-8-8-8-
B -0h2p0-0h2-0h2p0-0h2-0h2p0-2-0-----------------

E -------------------------------10101010-11-11-11-11-
B -------------------------------9-9-9-9--8--8--8--8--
F#----------------------------------------------------
B -0h2p0-0h2-0h2p0-0h2-0h2p0-2-0----------------------
                                 stststst st st st st

E -----------------------------------------------
B -----------------------------------------------
F#-------------------------------9-9-9-9-8-8-8-8-
B -0h2p0-0h2-0h2p0-0h2-0h2p0-2-0-----------------

E -----------------
B -----------------
F#-----------------
B -0h2p0-0h2-0h2p0-

verse 1   (0:20)                                  x2
E --------------------------------------------------
B ----------5-----------------3--5/8--5-------------
F#-3--5--0-----5--0--3--5--0-------------3--5--0--0-
B --------------------------------------------------
                                            x2
E --------------------------------------------
B ----------8--8\-----------5--5\--------0----
F#-3--5--0---------3--5--0---------3--5-----0-
B --------------------------------------------
[ Tab from: http://www.guitartabs.cc/tabs/m/mudvayne/not_falling_btab.html ]
chorus   (0:44)  2x's

verse 2   (1:15)                            x5
E ---------------------------------------------------
B ----------5--5/8-----------5--3/5------------------
F#-3--5--0----------3--5--0--------------------------
B -------------------------------------3--5--0--5--0-
                                            x2
E --------------------------------------------
B ----------8--8\-----------5--5\--------0----
F#-3--5--0---------3--5--0---------3--5-----0-
B --------------------------------------------

chours   (2:00)  2x's

bridge   (2:31)
E -12-12-12-12-12-12-12-12-11-11-11-11-11-11-11-11-
B -11-11-11-11-11-11-11-11-10-10-10-10-10-10-10-10-
F#-------------------------------------------------
B -------------------------------------------------
   st st st st st st st st st st st st st st st st
E --------------------------
B --------------------------
F#--------------------------
B -3-2-0-3-5-0--3-2-0-3-5-0-

   (2:54)                                 x2
E -12-12-12-12-12-12-12-12-11-11-11-11-11-11-11-11-
B -11-11-11-11-11-11-11-11-10-10-10-10-10-10-10-10-
F#-------------------------------------------------
B -------------------------------------------------

   (3:01)
E -12-12-12-12-12-12-12-12--------------------------
B -11-11-11-11-11-11-11-11--------------------------
F#--------------------------------------------------
B -------------------------3-2-0-3-5-0--3-2-0-3-5-0-

   (3:23)
E -12-12-12-12-12-12-12-12--12-12-12-12--12-12-12-12-12-
B -11-11-11-11-11-11-11-11--11-11-11-11--11-11-11-11-11-
F#------------------------------------------------------
B ------------------------------------------------------

chorus   (3:29)-end

that'll do it.
Comments