Mudvayne - Negative One Chords & Tabs

 

Negative One Chords & Tabs

Mudvayne Chords & Tabs

Version: 6 Type: Tab 0 ratings
1 star 2 stars 3 stars 4 stars 5 stars
comments

Negative One Tab

#----------------------------------PLEASE NOTE--------------------------------#
#This file is the author's own work and represents their interpretation of the#
#song. You may only use this file for private study, scholarship, or research.#
#-----------------------------------------------------------------------------#
#-- File created with Instab - http://www.pconline.com/~smcarey/instab.html --#
#-----------------------------------------------------------------------------#

Author/Artist: Mudvayne
Title: -1
Album: L.D 50
Transcribed by: www.pharmaecopiaonline.tk
Email: www.pharmaecopiaonline.tk

www.pharmaecopiaonline.tk
[ Tab from: http://www.guitartabs.cc/tabs/m/mudvayne/negative_one_tab_ver_6.html ]
--------------------------------------------------------------------|---------|
--------------------------------------------------------------------|---------|
--------------------------------------------------------------------|---------|
-0-0-0-0-0-0-0-0-0-0-0-0-0-0-0-0---0-0-0-0-0-0-0-0-0-0-0-0-0-0-0-0-0|---------|
-8-8-8-8-8-8-8-8-8-8-8-8-8-8-8/10-10-7-7-7-7-7-7-7-7-7-7-7-7-7-7-0-0|---------|
--------------------------------------------------------------------|---------|


------------------------|--------------------------------|--------------------|
------------------------|--------------------------------|--------------------|
------------------------|--------------------------------|--------------------|
------------------------|--------------------------------|--------------------|
-3-0-0/4-3-0--3-0-0-0--0|-2/3-2/3-5\3-2/3-2/3-2/3-5\3-5/6|--------------------|
-3-0-----3-0--3-0-0-0--0|-2/3-2/3-5\3-2/3-2/3-2/3-5\3-5/6|--------------------|


-----------12-----------|------------------------|----------------------------|
-12-----------12-----12r|-14----12----12---------|----------------------------|
------------------------|----15----14----14-13-14|----------------------------|
----15--14--------15----|------------------------|----------------------------|
------------------------|------------------------|----------------------------|
------------------------|------------------------|----------------------------|
Comments