Mudvayne - Negative One Chords & Tabs

 

Negative One Chords & Tabs

Mudvayne Chords & Tabs

Version: 1 Type: Bass Tab 0 ratings
1 star 2 stars 3 stars 4 stars 5 stars
comments

Negative One Bass Tab

   
Song: -1                                                                               
Artist: Mudvayne
Album: L.D. 50
Transcribed By: dago  (daigo_69@hotmail.com)       


h- hammer on
x- deadnote
~- let ring
u- upstroke
d- downstroke
 

heres my tab to -1 by mudvayne i don't know if its anygood or not but it may just help though
this is one of me first tabs ever done and i did this one cause it seemed like the easiest 
if you have any comments or corrections email me at daigo_69@hotmail.com




intro guitar only plays a bar 
then drums bass and vocals come in 

   clean sound                                                                                                                   
F||------------------------------------------|------------------------------------------||
C||*----------------------------------------*|------------------------------------------||
G||*------------2h3-------------------------*|-------------2h3--------------------------||
C||---2h3--2h4----------2h3-----0-----0--0---|---2h3--2h4----------2h3-----4-----0--0---||
     verse 1                                                                

                                             x3
F||------------------------------------------||
C||*----------------------------------------*||
G||*------------2h3-------------------------*||
C||---2h3--2h4----------2h3-----0-----0--0---||


F||------------------------------------------||
C||------------------------------------------||
G||-------------2h3--------------------------||
C||---2h3--2h4----------2h3-----0-x-x-2-1-0--||
         
                                             x4
F||------------------------------------------||
C||*----------------------------------------*||
G||*------------2h3-------------------------*||
C||---2h3--2h4----------2h3-----0-----0--0---||   


raise tempo or add distortion		      x7	
F||-------------------------------------------||
C||*-----------------------------------------*||
G||*------------2h3--------------------------*||
C||---2h3--2h4----------2h3-----0-0----0--0---||
     chorus                       
  
clean sound
F||------------------------------------------|------------------------------------------||
C||*----------------------------------------*|------------------------------------------||
G||*------------2h3-------------------------*|-------------2h3--------------------------||
C||---2h3--2h4----------2h3-----0-----0--0---|---2h3--2h4----------2h3-----4-----0--0---||
     verse 2                                                                

                                             x3
F||------------------------------------------||
C||*----------------------------------------*||
G||*------------2h3-------------------------*||
C||---2h3--2h4----------2h3-----0-----0--0---||


F||------------------------------------------||
C||------------------------------------------||
G||-------------2h3--------------------------||
C||---2h3--2h4----------2h3-----0-x-x-2-1-0--||
         
                                             x4
F||------------------------------------------||
C||*----------------------------------------*||
G||*------------2h3-------------------------*||
C||---2h3--2h4----------2h3-----0-----0--0---||


raise tempo or add distortion		x7	
F||-------------------------------------||
C||*-----------------------------------*||
G||*------------2h3--------------------*||
C||---2h3--2h4---------0-0----0--0--0---||
     chorus                        
[ Tab from: http://www.guitartabs.cc/tabs/m/mudvayne/negative_one_btab.html ]
                                              x4
F||-------------------------------------------||
C||*-----------------------------------------*||
G||*------------2h3--------------------------*||
C||---2h3--2h4----------2h3-----0-0----0--0---||
  break

 raise tempo or add distortion           x7
F||--------------------------------------||
C||*------------------------------------*||
G||*------------------------------------*||
C||--2h3-2h3-2h3-2h4-2h3-2h3-2h4-2h5-----||
   interlude
                                          x4
F||--------------------------------------|-----------------------------------|
C||*------------------------------------*|-----------------------------------|
G||*------------------------------x-x---*|-------------------------------x---|
C||--2h3-2h3-2h3-2h4-2h3-2h4-2h5--x-x ---|--2h3-2h3-2h3-2h4-2h3-2h3-2h5--x---|
      break                       u d                                    u 

                                                                                  x2
F||-------------------------------------------|-----------------------------------||
C||*------------------------------------------|----------------------------------*||
G||*------------2h3---------------------------|-------------2h3------------------*||
C||---2h3--2h4----------2h3-----0-0----0--0---|---2h3--2h4----------2h3-----0-0---||
   interlude 2

                                            x3
F||------------------------------------------||
C||------------------------------------------||
G||-------------2h3--------------------------||
C||---2h3--2h4----------2h3-----0-0----0--0--||


F||---------------------------------------------||
C||---------------------------------------------||
G||-------------2h3-----------------------------||
C||---2h3--2h4----------2h3-----0-x-x-x-x-x-0-~-||

                                                                                        
F||-------------------------------------------|----------------------------------------||
C||-------------------------------------------|----------------------------------------||
G||--------------2h3--------------------------|-------------2h3------------------------||
C||----2h3--2h4----------2h3-----0-0----0--0--|---2h3--2h4----------2h3-----0-0---0-~--||


F||------------------------------------------||
C||------------------------------------------||
G||-------------2h3--------------------------||
C||---2h3--2h4----------2h3-----0-0----0--0--||


                                        x8
F||-------------------------------------||
C||*-----------------------------------*||
G||*------------2h3--------------------*||
C||---2h3--2h4---------0-0----0--0--0---||
     chorus                        


F||-------------------------------------||
C||-------------------------------------||
G||-------------2h3--------------x-x----||
C||---2h3--2h4---------0-0----0--x-x----||
     outro                            u d 

F||---------------------------------------||
C||---------------------------------------||
G||-------------2h3--------------x-x-x-x--||
C||---2h3--2h4---------0-0----0--x-x-x-x--||
                                 u d u d
                   
                                        x2
F||-------------------------------------||
C||*-----------------------------------*||
G||*------------2h3--------------x-x---*||
C||---2h3--2h4---------0-0----0--x-x----||
                                 u d 


F||-------------------||
C||-------------------||
G||-------------2h3---||
C||---2h3--2h4--------||
Comments