Mudvayne - Mercy Severity Chords & Tabs

 

Mercy Severity Chords & Tabs

Mudvayne Chords & Tabs

Version: 6 Type: Tab 0 ratings
1 star 2 stars 3 stars 4 stars 5 stars
comments

Mercy Severity Tab

   
Mudvayne-mercy.severity
Tabbed by Tim Dowland (31_b4_33)
Tuning Dropped c (CGCFAD)

---------------
possitive about this 110%
check out the breakdown really good finger action
---------------

intro...
D------------------------------------------------
A------------------------------------------------
F------------------------------------------------
C-0000-000-000-0000-000-000-0000-000-000-0000-000
G-0000-000-000-0000-000-000-0000-000-000-0000-000
C-0000-000-000-0000-000-000-0000-000-000-0000-000

pre verse...
D---------------------------------------------
A---------------------------------------------
F---------------------------------------------
C-----7----7-----5----5-----4----4-----3----3-
G-----7----7-----5----5-----4----4-----3----3-
C-03007-0307-03005-0305-03004-0304-03003-0303-
PM....  ...  ....  ...  ....  ...  ....  ...

verse part A...
D------------------------------------------------
A------------------------------------------------
F------------------------------------------------
C-7-7-7--777-5-5-5--5h774-4-4--444-3-3-3-333-----
G------------------------------------------------
C------------------------------------------------

verse part B...
D-------------------------------------------------
A-------------------------------------------------
F-7-7-7------7-7-7------5-5-5------5-5-5----------
C-7-7-7--777-5-5-5--5h774-4-4--444-3-3-3-333------
G-------------------------------------------------
C-------------------------------------------------

chorus...
D----------------------------------------------------------------------
A-----------------------------------------------------------------555--
F----------7777--------777-----777-5555--------------5555--------------
C-320--320------020320-----320-----------02032020000------0203200-222--
G-320--320-5555-020320-555-320-555-3333--02032020000-3333-0203200------
C-320--320------020320-----320-----------02032002000------0203200------
PM  
                                     ...........      .......
verse part B...
D-------------------------------------------------
A-------------------------------------------------
F-7-7-7------7-7-7------5-5-5------5-5-5----------
C-7-7-7--777-5-5-5--5h774-4-4--444-3-3-3-333------
G-------------------------------------------------
C-------------------------------------------------

pre verse...
D---------------------------------------------
A---------------------------------------------
F---------------------------------------------
C-----7----7-----5----5-----4----4-----3----3-
G-----7----7-----5----5-----4----4-----3----3-
C-03007-0307-03005-0305-03004-0304-03003-0303-
PM....  ...  ....  ...  ....  ...  ....  ...

chorus...
D--------------------------------------------------------------------
A----------------------------------------------------------------555--
F----------7777--------777-----777-5555--------------5555-------------
C-320--320------020320-----320-----------02032020000------020320-222--
G-320--320-5555-020320-555-320-555-3333--02032020000-3333-020320------
C-320--320------020320-----320-----------02032002000------020320------
PM                                       ...........      ......
[ Tab from: http://www.guitartabs.cc/tabs/m/mudvayne/mercy_severity_tab_ver_6.html ]
Bridge...
|--------------------------------------------------------------|
|couldn't fit the h's (hammer ons)but do it where ever possible|
|which is almost every other beat...                           |
                                 |
                                 V
D--------------------------------------------------------------
A--------------------------------------------------------------
F----------------------------------------------------------5---
C-------------03------5----5--5---------------------7---7------
G----------------------------------810---910-910---------------
C-320202320202--030303-0303-03-0606--0606--06--0505-0505-05----
                                   
                                    ^10'S ^   ^  NOT 1-0!!!

D--------------------------------------------------------------
A--------------------------------------------------------------
F----------------------------------------------------------5---
C-------------03------5----5--5---------------------7---7------
G----------------------------------810---910-910---------------
C-320202320202--030303-0303-03-0606--0606--06--0505-0505-05----
                                   
                                    ^10'S ^   ^  NOT 1-0!!!

D-------------------------------------------------------------
A-------------------------------------------------------------
F--------------------------4-464-4-4-454----------------------
C-----------------55555555-4-454-4-4-454---55551010-----------
G-----------------333333330202320202023200-33338888-----------
C-320202320202320-33333333-----------------33338888-----------
PM                        ................                                            
                                              ^10'S FOR ALL 4 BEATS


D-------------------------------------------------------------
A-------------------------------------------------------------
F--------------------------4-464-4-4-454----------------------
C-----------------55555555-4-454-4-4-454---55551010-----------
G-----------------333333330202320202023200-33338888-----------
C-320202320202320-33333333-----------------33338888-----------
PM                        ................                                            
                                              ^10'S FOR ALL 4 BEATS

pre verse...
D---------------------------------------------
A---------------------------------------------
F---------------------------------------------
C-----7----7-----5----5-----4----4-----3----3-
G-----7----7-----5----5-----4----4-----3----3-
C-03007-0307-03005-0305-03004-0304-03003-0303-
PM....  ...  ....  ...  ....  ...  ....  ...

verse part B...
D-------------------------------------------------
A-------------------------------------------------
F-7-7-7------7-7-7------5-5-5------5-5-5----------
C-7-7-7--777-5-5-5--5h774-4-4--444-3-3-3-333------
G-------------------------------------------------
C-------------------------------------------------

fill...
D------*7-------*7-----------
A------------------*7--------
F-*7------------------*7-----
C----*7------*7--------------
G----------------------------
C----------------------------

chorus...
D--------------------------------------------------------------------
A----------------------------------------------------------------555--
F----------7777--------777-----777-5555--------------5555-------------
C-320--320------020320-----320-----------02032020000------020320-222--
G-320--320-5555-020320-555-320-555-3333--02032020000-3333-020320------
C-320--320------020320-----320-----------02032002000------020320------
PM                                       ...........      ......

outro...
D------------------------------------------------
A------------------------------------------------
F------------------------------------------------
C-0000-000-000-0000-000-000-0000-000-000-0000-000
G-0000-000-000-0000-000-000-0000-000-000-0000-000
C-0000-000-000-0000-000-000-0000-000-000-0000-000
Comments