Mudvayne - Mercy Severity Chords & Tabs

 

Mercy Severity Chords & Tabs

Mudvayne Chords & Tabs

Version: 3 Type: Tab 0 ratings
1 star 2 stars 3 stars 4 stars 5 stars
comments

Mercy Severity Tab

   
Mudvayne
Mercy, Severity (Track #5)
End of All Things to Come
Tabbed by: Rob Walden
Tuning: CGCFAD
Palm-mute=*

Intro 00:00-00:07
------------------------
------------------------
------------------------
-000-000-000-000-000-000
-000-000-000-000-000-000
-000-000-000-000-000-000

Prechorus (fast action here)
--------------------
--------------------
--------------------
--------------------
-5-5-6-0-6--0-6-0-6-
-5-5-6-0-6--0-6-0-6-
 * * * * *  * * * *

Verse
-----------------------------
-----------------------------
-----------------------------
-77777-55555-5h7-44444-33333-
-----------------------------
-----------------------------
[ Tab from: http://www.guitartabs.cc/tabs/m/mudvayne/mercy_severity_tab_ver_3.html ]
Chorus
--------------------------------------------
--------------------------------------------
-----77-----77-7-55-----------55----------99
-565-xx-565-xx-x-xx-556060606-xx-06060606-xx
-565-55-565-55-5-33-556060606-33-06060606-77
-565----565---------556060606----06060606---
                    *********    ********

Bridge
---------------------------------
---------------------------------
---------------------------------
-------33-------55-------77-10-10
-23232----23232----23232---------
-23232----23232----23232---------

Bridge part two ("won't you take me away?" 03:53
---------
-------10
-10-7----
---------
---------
---------

Song Order
Intro
Prechorus X8
Verse X4
Chorus X4
Verse X3
Prechorus X8
Chorus X4
Bridge A X3
Prechorus X8
Verse X2
Bridge B X4
Chorus X4
Intro

Thats it, Im me at kornfellow91 (AIM) for comments or leave one
in the correction box, thanks and enjoy!
Comments