Mudvayne - Mercy Severity Chords & Tabs

 

Mercy Severity Chords & Tabs

Mudvayne Chords & Tabs

Version: 1 Type: Tab 0 ratings
1 star 2 stars 3 stars 4 stars 5 stars
comments

Mercy Severity Tab

   
Artist: Mudvayne 
Song Title: Mercy, Severity
Submitted by: Mike Downes
Mudvayne tunes to droped C on this CD
thats C-G-C-F-A-D

INTRO
|------------------------------------------|
|------------------------------------------|
|------------------------------------------|
|------------------------------------------|
|-0-0-0--0-0-0--0-0-0--0-0-0--0-0-0--0-0-0-|
|-0-0-0--0-0-0--0-0-0--0-0-0--0-0-0--0-0-0-|
p.m.. .  . . .  . . .  . . .  . . .  . . .

|-----------------------------------------------------------------
|-----------------------------------------------------------------
|-----------------------------------------------------------------
|-----------------------------------------------------------------
|-0-3-0-0-7--3-0-0-7--0-3-0-0-6--3-0-0-6--0-3-0-0-5--3-0-0-5------
|-0-3-0-0-7--3-0-0-7--0-3-0-0-6--3-0-0-6--0-3-0-0-5--3-0-0-5------
p.m . . . .  . . . .  . . . . .  . . . .  . . . . .  . . . .
[ Tab from: http://www.guitartabs.cc/tabs/m/mudvayne/mercy_severity_tab.html ]
----------------------|
----------------------|
----------------------|
----------------------|
-0-3-0-0-4--3-0-0-4---|
-0-3-0-0-4--3-0-0-4---|
p.m. . . .  . . . .



|----------------------------------------------------------|
|----------------------------------------------------------|
|----------------------------------------------------------|
|-7-7-7-7-7-7-5-5-5-5-5p7h5-4-4-4-4-4-4-4-3-3-3-3-3-3------|
|----------------------------------------------------------|
|----------------------------------------------------------|

CHORUS
|----------------------------------------------------------|
|----------------------------------------------------------|
|------------------7-7-7-7-7-7---------7-7-7-7--5-5-5-5-5--|
|----------------------------------------------------------|
|--3-2-0-0-3-2-0-0-5-5-5-5-5-5-3-2-0-0-5-5-5-5--3-3-3-3-3--|
|--3-2-0-0-3-2-0-0-------------3-2-0-0---------------------|
p.m. . . . . . . .             . . . .


Mu Dv Ay Ne kicks ass 



Comments