Mudvayne - Know Forever Chords & Tabs

 

Know Forever Chords & Tabs

Mudvayne Chords & Tabs

Version: 1 Type: Bass Tab 0 ratings
1 star 2 stars 3 stars 4 stars 5 stars
comments

Know Forever Bass Tab

Artist: Mudvayne
Song (K)now f(orever)
Tabbed by frosty

I haven't finished tabbing this but i thought i'd put up what i had so far cos there is nothing else up here for this song

INTRO
|-----||-----------------||-----------------||----------------------|
|-----||-----------------||-----------------||----------------------|
|-----||-----------------||-----------------||----------------------|
|-3-3-||----3-3------3-3-||-3-3--3-3----3-3-||-3-3--3-3-----3-3-3-3-|

|----------------------------------------------------|
|--------------------------------------------3-3-----|
|------------------------------------------------2-2-|
|-3-3--3-4-3-3--3-3-4---3-3--3-4-3-6--3-3--4---------|

|------------------------------------------------------|
|----------------------------------------------6-6-----|
|--------------------------------------------5-----5-5-|
|-3-3--3-4-3-3--3-4-3/9---3-3--3-4-3-3--3-3------------|

|------------------------------------------------------------------|
|---------3-3---------3----3-3-3-3---------3-3-----------3-4-4-----|
|-----2-2-----2-2-------2--2-2-2-2-----2-2-----2-2-----2-------3-3-|
|-4-3-------------4-3--------------4-3-------------4-3-------------|

|-------------------------------------------------------------------|
|---------3-3---------3----3-3-3-3---------4-3-0--1/5h6-5h6-5h6-5-3-|
|-----2-2-----2-2-------2--2-2-2-2-----2-2--------------------------|
|-4-3-------------4-3--------------4-3------------------------------|

CHORUS FAST
|--------------------------------------------------4-4-4-4-|
|--------------------------------------------------3-3-3-3-|
|-3-------------------------3------------------------------|
|---4-0-3-4-0-4-3-0-0--0-0----4-0-3-4-0-4-3-0-0--0---------|

CHORUS SLOW
|-------------------------------------------------4-4-4-4-|
|-------------------------------------------------3-3-3-3-|
|-3--------------------------3----------------------------|
|---4-0-3-4/12--0-0--0-\12-----4-0-3-4/12--0-0--0---------|

riff 1
|----------------------|
|----------------------|
|-2--------------------|
|---0--0--0-6-0------0-|

verse
|-----------------------------------------------16----------------16------------|
|----------3----------------3-----3/15-15-15-15----15-15-15-15-15----15-x-x-x-x-|
|-------3----2-----------3----2-------------------------------------------------|
|-0--1-------------0--1---------------------------------------------------------|

|-----------------------------------------4-4---------4-4---------|
|-----------------------------------------3-3---------3-3---------|
|-3h5-5-5-5-5-5h6-6-3-3-3-5-2-2-2-2-2-2-2-----2-2-2-2-----2-2-2-2-|
|-----------------------------------------------------------------|		
[ Tab from: http://www.guitartabs.cc/tabs/m/mudvayne/know_forever_btab.html ]
|---------------------------------4-4---------4-4---------4-------|
|---------------------------------3-3---------3-3---------3-3-----|
|-3h5-5-5-5-5-5h6-6-3-3-3-5-2-2-2-----2-2-2-2-----2-2-2-2---2-2-2-|
|-----------------------------------------------------------------|

|---------------------------------------------------|
|--------------3------------------------------------|
|----------------2--2-3-2-3-2-2-3-2-3-2-0-----------|
|-0--0-0-1--3-----------------------------4-3-4-3-3-|

|-----------------------------------------4----------4------4---|
|-----------------------------------------3----------3------3---|
|-x-x-x-x-x-x-x-x-x-x-x-x-x-x-x-x-2-2-2-2---2--2-2-2---2--2---2-|
|---------------------------------------------------------------|

BRIDGE
|-4-4-4-4-4/7-4-4-4-4-5-5-5-5-5-5-5-7-7-7-7-8-7-7-7-7-5-5-5-5-5-5-5-|
|-------------------------------------------------------------------|
|-------------------------------------------------------------------|
|-------------------------------------------------------------------|

HEAVY BRIDGE
|--------------------------------------------------4h5-5h7-|
|----------------------------------------------------------|
|-3-------------------------3------------------------------|
|---4-0-3-4-0-4-3-0-0--0-0----4-0-3-4-0-4-3-0-0--0---------|


|------------------------4-4-4-4---------------|
|------------------------3-3-3-3---------------|
|-3------------------------------2-------------|
|---4-0-3-4-0-4-3-0-0--0-----------0--0--0-6-0-|

Riff 2
|---------------------------|
|---------------------------|
|---------------------------|
|-0-0-0-0---0-0-0---0-0---0-|

PIT TUNE
|-----------------------------|
|-----------------------------|
|-----------------------------|
|-6-0-0-0--0-0--0-0--0-0--0-0-|

Evil bridge
|---------------7-7-7-7-8-8-8-8---------------7-7-7-7-5-5-5-5-|
|-------------------------------------------------------------|
|---------------5-5-5-5-6-6-6-6---------------5-5-5-5-3-3-3-3-|
|-6-0-0-0--0-0------------------6-0-0-0--0-0------------------|

|-4--4--5--5---------------------------------------|
|-4--4--3--3---------------------------------------|
|------------------2----------2----------2---------|
|-------------3--3---3-1-3--3---3-1-3--3---3-1-3-1-|

|--------4----------------5--------4----------------|
|------3--------3-------4--------3--------3---------|
|-2--2-----2--2---2-2-3-----2--2-----2--2---2-3-3-3-|
|---------------------------------------------------|

|------4----------------5--------4--------5-5h7p5-5h7p5-|
|---------------4---4----------3--------4---------------|
|-2--2---2-3--3---3---3---2--2-----2--3-----------------|
|-------------------------------------------------------|

|-------4----|
|-------3----|
|-2-2-2----2-|
|------------|

Slow Ending
|-----------------------------4-4-----------------------------------|
|-----------------------------3-3-----------------------------------|
|-------------------------------------------------------------------|
|-3-2-1-3-2-1-3-2-3-2-1-3-2-1-----3-2-1-3-2-1-3-2-3-2-1-3-2-1-3-2-1-|



Comments