Mudvayne - Just Chords & Tabs

 

Just Chords & Tabs

Mudvayne Chords & Tabs

Version: 1 Type: Tab 0 ratings
1 star 2 stars 3 stars 4 stars 5 stars
comments

Just Tab

   
Band- Mudvayne
Song- Just

Tuning dropped C (C,G,C,F,A,D)

.  - Palm Mute
tr - tremolo picking
/ - slide up
\\ - slide down

INTRO
D---------------------------------|
A---------------------------------|
F---------------------------------|
C---------------------------------| x4
G-2-2-2---------------------------|
C-------3-3-3-0-0-0-3-2-0-2-3-2-0-|

CHORUS
D-----------------------------------------------------------------|
A-----------------------------------------------------------------|
F-----------------------------------------------------------------|
C-4-4-4-----------------------------------------------------------| 
G-2-2-2-3-3-3-0-0-0-3-2-0-2-3-2-0-3-3-3-6-6-6-5-5-5-3-3-3-5-5-5-5-|
C-------3-3-3-0-0-0-3-2-0-2-3-2-0-3-3-3-6-6-6-5-5-5-3-3-3-5-5-5-5-|

D-----------------------------------------------------------------------|
A-----------------------------------------------------------------------|
F---------------------------------------------------7-7-7-7-10-10-10-10-|
C-4-4-4-----------------------------------------------------------------| 
G-2-2-2-3-3-3-0-0-0-3-2-0-2-3-2-0-3-3-3-6-6-6-5-5-5-5-5-5-5-8--8--8--8--|
C-------3-3-3-0-0-0-3-2-0-2-3-2-0-3-3-3-6-6-6-5-5-5---------------------|

VERSE
D-------------------------------------------|
A-------------------------------------------|
F-------------------------------------------|
C-------------------------------------------| x4
G-0-0-0--0--0--0-0-0--0-0-0--0----5---5-----|
C-0-0-0--0--0--0-0-0--0-0-0--0--3---3---3-5-|
  . . .  .  .  . . .  . . .  .  tr---------       

CHORUS (two times)
D-----------------------------------------------------------------|
A-----------------------------------------------------------------|
F-----------------------------------------------------------------|
C-4-4-4-----------------------------------------------------------| 
G-2-2-2-3-3-3-0-0-0-3-2-0-2-3-2-0-3-3-3-6-6-6-5-5-5-3-3-3-5-5-5-5-|
C-------3-3-3-0-0-0-3-2-0-2-3-2-0-3-3-3-6-6-6-5-5-5-3-3-3-5-5-5-5-|

D-----------------------------------------------------------------------|
A-----------------------------------------------------------------------|
F---------------------------------------------------7-7-7-7-10-10-10-10-|
C-4-4-4-----------------------------------------------------------------| 
G-2-2-2-3-3-3-0-0-0-3-2-0-2-3-2-0-3-3-3-6-6-6-5-5-5-5-5-5-5-8--8--8--8--|
C-------3-3-3-0-0-0-3-2-0-2-3-2-0-3-3-3-6-6-6-5-5-5---------------------|


VERSE
D------------------------------|
A------------------------------|
F------------------------------|
C------------------------------|
G-0-0-0--0--0--0-0-0--0-0-0--0-|
C-0-0-0--0--0--0-0-0--0-0-0--0-|
  . . .  .  .  . . .  . . .  . 
[ Tab from: http://www.guitartabs.cc/tabs/m/mudvayne/just_tab.html ]
the third time it\'s just this
D-------------------------------------------|
A-------------------------------------------|
F-------------------------------------------|
C-------------------------------------------| x4
G-0-0-0--0--0--0-0-0--0-0-0-------5---5-----|
C-0-0-0--0--0--0-0-0--0-0-0-----3---3---3-5-|
  . . .  .  .  . . .  . . .     tr---------  
                             ^the bass plays something here instead of the 0

D-------------------------------------------|
A-------------------------------------------|
F-------------------------------------------|
C-------------------------------------------| x4
G-0-0-0--0--0--0-0-0--0-0-0--0----5---5-----|
C-0-0-0--0--0--0-0-0--0-0-0--0--3---3---3-5-|
  . . .  .  .  . . .  . . .  .  tr---------    

CHORUS (two times)
D-----------------------------------------------------------------|
A-----------------------------------------------------------------|
F-----------------------------------------------------------------|
C-4-4-4-----------------------------------------------------------| 
G-2-2-2-3-3-3-0-0-0-3-2-0-2-3-2-0-3-3-3-6-6-6-5-5-5-3-3-3-5-5-5-5-|
C-------3-3-3-0-0-0-3-2-0-2-3-2-0-3-3-3-6-6-6-5-5-5-3-3-3-5-5-5-5-|

D-----------------------------------------------------------------------|
A-----------------------------------------------------------------------|
F---------------------------------------------------7-7-7-7-10-10-10-10-|
C-4-4-4-----------------------------------------------------------------| 
G-2-2-2-3-3-3-0-0-0-3-2-0-2-3-2-0-3-3-3-6-6-6-5-5-5-5-5-5-5-8--8--8--8--|
C-------3-3-3-0-0-0-3-2-0-2-3-2-0-3-3-3-6-6-6-5-5-5---------------------|

BRIDGE
I\'m sorry but I couldn\'t tab out the first part. But when I have a bit more time I will do it.
So here is the second part:


D-------------------------|
A-------------------------|
F-5/8--7-7--10--7-8-7-5-7-|
C-------------------------|
G-3/6--5-5--8---5/6\\5\\3/5-|
C-------------------------|

CHORUS (two times)
D---------------------------------|
A---------------------------------|
F---------------------------------|
C---------------------------------| 
G-2-2-2---------------------------|
C-------3-3-3-0-0-0-3-2-0-2-3-2-0-|

D-----------------------------------------------------------------|
A-----------------------------------------------------------------|
F-----------------------------------------------------------------|
C-4-4-4-----------------------------------------------------------| 
G-2-2-2-3-3-3-0-0-0-3-2-0-2-3-2-0-3-3-3-6-6-6-5-5-5-3-3-3-5-5-5-5-|
C-------3-3-3-0-0-0-3-2-0-2-3-2-0-3-3-3-6-6-6-5-5-5-3-3-3-5-5-5-5-|

D-----------------------------------------------------------------------|
A-----------------------------------------------------------------------|
F---------------------------------------------------7-7-7-7-10-10-10-10-|
C-4-4-4-----------------------------------------------------------------| 
G-2-2-2-3-3-3-0-0-0-3-2-0-2-3-2-0-3-3-3-6-6-6-5-5-5-5-5-5-5-8--8--8--8--|
C-------3-3-3-0-0-0-3-2-0-2-3-2-0-3-3-3-6-6-6-5-5-5---------------------|

OUTRO
D--------------------|
A--------------------|
F--------------------|
C--------------------|
G-0-0-0--0--0--0-0-0-|
C-0-0-0--0--0--0-0-0-|
  . . .  .  .  . . .
Comments