Mudvayne - Just Chords & Tabs

 

Just Chords & Tabs

Mudvayne Chords & Tabs

Version: 1 Type: Bass Tab 0 ratings
1 star 2 stars 3 stars 4 stars 5 stars
comments

Just Bass Tab

   
Band- Mudvayne
Song- Just

Drop C. Low to high: C, G, C, F

/ \ : slide (up, down)
s : slap
p : pop

Intro/chorus                                                         rpt.
F|-------------------|--------------------------------------------------|
C|-------------------|--------------------------------------------------|
G|-------------------|----------------------------777---999------121212-|
C|----------------3//|99-0-66-0-44-0-3-0-2320-666----888---101010-------| 
                  s                              those are 10's and 12's

Verse 1
F|-----2-----------9----7-----9/10----9---10-|
C|-----2-----------------------------x-------|
G|---------------------6-x-6//---------------|
C|-00---0-000-00//--5//----6//----7//--8//---| repeat as needed
   ss  ps sss ss   ps  sps s  p   s   ps   p
Chorus
[ Tab from: http://www.guitartabs.cc/tabs/m/mudvayne/just_btab.html ]
Post chorus
F|-----2------------|
C|-----2------------|
G|------------------|
C|-0-00--0-000-00-0-|
   s ssp s sss ss s

Verse 2. Same as verse 1, but with this variation third time through.
F|-----2-----------9----7-----9/10----9----13|
C|-----2-----------------------------x-----12|
G|---------------------6-x-6//---------------|
C|-00---0-000-00//--5//----6//----7//--8//---|
   ss  ps sss ss   ps  sps s  p   s   ps   p

Chorus

Interlude
F|------------------------------------------------------|
C|-10-7-9-10-7-10-9-7-9-7-10-9--------------------------|
G|------------------------------8-5-7-8-5-8-7-5-7-5-8-7-|
C|------------------------------------------------------| rpt

F|-----------------------|
C|-----------------------|
G|-5-8-7-5-7-9-5-7-8-5-9-|
C|-----------------------| rpt

Chorus

Outro
F|---2------|
C|---2------|
G|----------|
C|-00-0-000-|
Comments