Mudvayne - Internal Primates Forever Chords & Tabs

 

Internal Primates Forever Chords & Tabs

Mudvayne Chords & Tabs

Version: 3 Type: Tab 0 ratings
1 star 2 stars 3 stars 4 stars 5 stars
comments

Internal Primates Forever Tab

   
Song:Internal Primates Forever
BAnd:Mudvayne
Album:LD.50
Tabbed By:Lee(crazy_freik)

Tuned: B F# B E G# C#

fig-figure
x-mute
^-bend

Intro

C#---------------------
G#---------------------
E ---------------------
B ---------------------  -320-320--33-530------------
F#---------------------  -320-320--33-530------------
B -320-320-33-530------  -320-320--33-530------------

Verse

C#------------  -----------
G#------------  -----------
E ----7---7-7-  ---777---7-
B --6---6-----  -6-----6---
F#------------  -----------
B ------------  -----------

chorus

B--320-320-33-530---------------
F#-320-320-33-530---------------
B--320-320-33-530---------------

verse-chorus


    Give it to me!give it to me! (fig1)
B--12121212-33-555-6-88-11-11-121212121212-----
F#---------------------------------------------
B----------------------------------------------
[ Tab from: http://www.guitartabs.cc/tabs/m/mudvayne/internal_primates_forever_tab_ver_3.html ]
Then to the chorus 

Now play this (fig2)
B--12121212-33-555-6-88-11-1212121212-
F#-12121212-33-555-6-88-11-1212121212-
B--12121212-33-555-6-88-11-1212121212-

Then play fig1 a few times
Then play fig2-fig1-fig2 

Now you play this (Fig3)
B--530-530-5-5-3-00-3-5---
F#-530-530-5-5-3-00-3-5----
B--530-530-5-5-3-00-3-5----
   
STAND ON.......(Fig4)
C#------------------------
G#------------------------
E--12(Pick-This-Note)-12^-

Then play fig3-fig4-fig3

Now at the end of fig3 play this
B--3-2-0-3-5--------
F#-3-2-0-3-5--------
B--3-2-0-3-5^-------

ONE TWO!!!!!!

play the chorus now
Then this

B--5-4-0-5-7-x--5-4-00-5-7-3-----
F#-5-4-0-5-7-x--5-4-00-5-7-3-----
B--5-4-0-5-7-x--5-4-00-5-7-3-----

ending
B--320-320---
F#-320-320---
B--320-320---


This was a hard song to tab
so its not perfect but it is 
the most accurate ive seen so 
far.
If you have anything to say mail me
crazy_freik@yahoo.com







Comments