Mudvayne - Internal Primates Forever Chords & Tabs

 

Internal Primates Forever Chords & Tabs

Mudvayne Chords & Tabs

Version: 2 Type: Tab 0 ratings
1 star 2 stars 3 stars 4 stars 5 stars
comments

Internal Primates Forever Tab

Author/Artist: MuDvAyNe 
Title: Internal Primates Forever 
Album: L.D 50 
Tabed by ATS
 

Drop D tuning! 

--------------------------|--------------------------------------------------- 
--------------------------|--------------------------------------------------- 
--------------------------|--------------------------------------------------- 
--------------------------|--------------------------------------------------- 
--------------------------|-0-0-0--0-0--0-0--0-------------------------------- 
-4-0-1-1p0-1--0-0--3p0-3--|-0-0-0--0-0--0-0--0-------------------------------- 
Intro                     End of Intro 

-----------------|------------------------------------------------------------ 
-----------------|------------------------------------------------------------ 
----7-----7--7---|----7-----7--13\7------------------------------------------- 
--6---0h6----6---|--6---0h6----12\6------------------------------------------- 
-----------------|------------------------------------------------------------ 
-----------------|------------------------------------------------------------ 
Verse (8 times)   4th time do this 

---------------------------------|-------------------------------------------- 
---------------------------------|-------------------------------------------- 
-7-7-7-------------------5-5-6-6-|-------------------------------------------- 
-------3-3-3-5-5-5-6-6-6---------|-------------------------------------------- 
---------------------------------|-------------------------------------------- 
---------------------------------|-------------------------------------------- 
Pre-Bridge (Palm Mute) 

---------------------------------|-------------------------------------------- 
---------------------------------|-------------------------------------------- 
-7-7-7-------------------5-5-6-6-|-------------------------------------------- 
-7-7-7-3-3-3-5-5-5-6-6-6-5-5-6-6-|-------------------------------------------- 
-5-5-5-3-3-3-5-5-5-6-6-6-3-3-4-4-|-------------------------------------------- 
-------3-3-3-5-5-5-6-6-6---------|-------------------------------------------- 
Bridge 

-----------------------------------------------------------------|------------ 
-----------------------------------------------------------------|------------ 
-7-7-7-------------------5-5-6-6-7-7-7-5-5-5-4-4-4-2-2-2---------|------------ 
-7-7-7-3-3-3-5-5-5-6-6-6-5-5-6-6-7-7-7-5-5-5-4-4-4-2-2-2-5-5-3-3-|------------ 
-5-5-5-3-3-3-5-5-5-6-6-6-3-3-4-4-5-5-5-3-3-3-2-2-2-0-0-0-5-5-3-3-|------------ 
-------3-3-3-5-5-5-6-6-6---------------------------------5-5-3-3-|------------ 
Bridge Last Time 
[ Tab from: http://www.guitartabs.cc/tabs/m/mudvayne/internal_primates_forever_tab_ver_2.html ]
--------------------------|--------------------------------------------------- 
--------------------------|--------------------------------------------------- 
--------------------------|--------------------------------------------------- 
-6-5-0-3-5-0-3--6-5-0-3-5-|--------------------------------------------------- 
-6-5-0-3-5-0-3--6-5-0-3-5-|--------------------------------------------------- 
-6-5-0-3-5-0-3--6-5-0-3-5-|--------------------------------------------------- 
2nd Bridge 

----------|------------------------------------------------------------------- 
----------|------------------------------------------------------------------- 
-12-12/13-|------------------------------------------------------------------- 
-10-10/11-|------------------------------------------------------------------- 
-10-10/11-|------------------------------------------------------------------- 
----------|------------------------------------------------------------------- 
Interlude (listen to cd for gist) 

---------------------------------------------------|-------------------------- 
---------------------------------------------------|-------------------------- 
---------------------------------------------------|-------------------------- 
-6-5-0-3-5-0-6-5-0-3-5-0-6-5-0-3-1---1-0-1-2-1-0-1-|-------------------------- 
-6-5-0-3-5-0-6-5-0-3-5-0-6-5-0-3-1---1-0-1-2-1-0-1-|-------------------------- 
-6-5-0-3-5-0-6-5-0-3-5-0-6-5-0-3-1---1-0-1-2-1-0-1-|-------------------------- 
2nd Bridge Outro, listen to cd for timing 

----------------------------|------------------------------------------------- 
----------------------------|------------------------------------------------- 
----------------------------|------------------------------------------------- 
-4-0-1-0-1-0-1-0--0-0-3-0-3-|------------------------------------------------- 
-4-0-1-0-1-0-1-0--0-0-3-0-3-|------------------------------------------------- 
-4-0-1-0-1-0-1-0--0-0-3-0-3-|------------------------------------------------- 
Third to Final Outro. Palm Mute 

--------------------------|--------------------------------------------------- 
--------------------------|--------------------------------------------------- 
--------------------------|--------------------------------------------------- 
-6-5-6-7-6--6-5-6-5-6-7-3-|--------------------------------------------------- 
-6-5-6-7-6--6-5-6-5-6-7-3-|--------------------------------------------------- 
-6-5-6-7-6--6-5-6-5-6-7-3-|--------------------------------------------------- 
Second to Final Outro 

------------------------------------------------------------------------------ 
--------------------------5--------------------------------------------------- 
--------------------------5--------------------------------------------------- 
-6-5-6-7-6-0-3--6-5-6-7-0-3--------------------------------------------------- 
-6-5-6-7-6-0-3--6-5-6-7-0-3--------------------------------------------------- 
-6-5-6-7-6-0-3--6-5-6-7-0-3--------------------------------------------------- 
Final Outro
Comments