Mudvayne - Internal Primates Forever Chords & Tabs

 

Internal Primates Forever Chords & Tabs

Mudvayne Chords & Tabs

Version: 3 Type: Bass Tab 0 ratings
1 star 2 stars 3 stars 4 stars 5 stars
comments

Internal Primates Forever Bass Tab

   
Song:Internal Primates Forever
Band:Mudvayne


Tuning:
E                  s=slap   p=pluck
B
F#
B

  Intro
[--------------------------------------]
[--------------------------------------]
[--------------------------------------]
[/12~~--0--0--0----0--0----0--0------0-]
 s      s  s  s    s  s    s  s      s

Chorus                         v= 4 beats
[--------------------------------I------------------------------]
[--------------------------------I------------------------------]
[--------------------------------I------------------------------]
[4-1-0---1-0-1---0---0-3-2-3-----4-1-0---1-0-1-----0---0-3-2-3--]
There's no use to fight this , wrenching tourniquet......

Verse (1&2 are the same) (you can play the ones in (), but really, it sounds an 
[--------------------------------I-------------------(7)--------]  octave lower)
[--------------------0-----------I-------------------------(6)--]
[----------3---3-----------------I---------3---3------5---------]
[0-0-2-3-X---X---X-X---X-0-3-2-0-0-0-2-3-X---X---X-X----X-X-6--X]
 s s s s s p s p s s p s s s s s s s s s s p s p s s  p s s s  s
...provisions,      feed my addictions....
[--------------------------------I-------------------(7)--------]
[--------------------4p0---------I-------------------------(6)--]
[----------3---3-------------3---I---------3---3------5---------]   rpt both these 
[0-0-2-3-X---X---X-X-----X-X---X-0-0-2-3-X---X---X-X----X-X-6--X]  til verse is over
 s s s s s p s p s s p   s s s s s s s s s p s p s s  p s s s  s
mistakes i've made then,...   I opened up the holes and they crawled in....

Bridge
[ Tab from: http://www.guitartabs.cc/tabs/m/mudvayne/internal_primates_forever_btab_ver_3.html ]
[--------------------------------I------------------------------]   -------
[--------------------------------I------------------------------]   -------
[5-5-5-------------------3-3-4-4-5-5-5-------------------3-3-4-4]   ---5/--
[------3-3-3-5-5-5-6-6-6---------I-----3-3-3-5-5-5-6-6-6--------]   -------
                                                                        
[---------7----------5-----7-7\--I--------7----------10----12---]
[-----X----------X-------0-------I------------------------------]
[5------X------X---3---X---------/5---X-X---X--X-X-X---X-X------]
[--------------------------------I------------------------------]
 s    p s p    s p s p s s p p   s    s s p s  s s s p s s p p
          Help,   they won't leave me alone,      they won't leave...

[7\----------------------5-5-6-6-7-7-7-------------------5-5-6-6]   
[--------------------------------I------------------------------]   
[5\----------------------3-3-4-4-5-5-5-------------------3-3-4-4]   
[------3-3-3-5-5-5-6-6-6---------I-----3-3-3-5-5-5-6-6-6--------]   
 p
 If i would have known back then what i know now.....

[7-7-7-5-5-5-4-4-4-3-3-3-2------]
[-------------------------------]
[5-5-5-3-3-3-2-2-2-1-1-1-0------]
[-------------------------------]
I'd take it all f**kin back...

[-----------------(-------5--)---I theres one time when hes singing "hold me im
[-----------------(-5--X----5)---I shaking violently" or somewhere in there where he
[--------------------------------I does this little pop thing
[6-5-0-3-5-0-3-----6-5-0-3-5-----I

 Stay away
[7--------5--5-6-----------4-----I
[--------------------5-5-----5---I
[--5p0-X-------------------------I
[--------------------------------I
 p s   s             
 Stay away
 (last one)        v  this part's FAST!!!
[7--------5--5-6-----X---8--8--8-I
[--------------------------------I
[--5p0-X----------XXX-XX-6--6--6-I
[--------------------------------I
 p s   s          ssspss

part before the last chorus
[--------------------------------I-----------------------------------]
[--------------------------------I-----------------------------------]
[--------------------------------I-----------------------------------]
[6-5-0-3-5-6-5-0-3-5-6-5-0-3-5-6-5-0-3-5-6-5-0-3-0-------3----0--6-5-0   one, two...

Last Chorus changes
                                              v -this is actually a back-rake, like
[-------------X------------------I------------X-----------------]    --X-----
[-------------X------------------I------------X-----------------]    ---X----
[-------------X------------------I------------X-----------------]    ----X---
[4-3-0-8-7----X--4-3-0-8-7-0-3---4-3-0-8-7----X--4-3-0-8-7-0-3--]    -----X--

During "Internal Primates....Forever"

[-9-9----9-9----9-9----9-9----9-9----9-9/10-10---------]
[------------------------------------------------------]
[-7-7----7-7----7-7----7-7----7-7----7-7/8--8----------]
[------------------------------------------------------]
Comments