Mudvayne - Imn Chords & Tabs

 

Imn Chords & Tabs

Mudvayne Chords & Tabs

Version: 1 Type: Tab 0 ratings
1 star 2 stars 3 stars 4 stars 5 stars
comments

Imn Tab

Artist:	Mudvayne
Song:	IMN
Album:	Lost And Found
Tabber:	drptnk
Tuning:	CGCFAD

I've tabbed this song out in full so what you see in the tab is what they play.
There are no repeats (x4's or whatever).

/  = Slide
~  = Vibrato
x  = Mute Strings
pm = Palm Mute

Intro: (00:43)
|--------------------------|--------------------------|
|--------------------------|--------------------------|
|--------------------------|--------------------------|
|--------------------------|--------------------------|
|--------------------------|--------------------------|
|--0-0-0-0--------0-0-0-0--|------0-0-0-0-----0-0-0-0-|
pm - - - -        - - - -         - - - -     - - - -

|------------------------------|------------------|-------------|
|------------------------------|------------------|-------------|
|------------------------------|------------------|-------------|
|------------------------------|------------------|-------------|
|---0-0-0-0--0-0-0-0--0-0-0-0--|--0-0-0-0-0-0-0-0-|-0--0--0--0--|
pm  - - - -  - - - -  - - - -     - - - - - - - -   -  -  -  -

Verse: (00:51)
|--------------------------|--------------------------|
|--------------------------|--------------------------|
|--3--3--3-----------------|--3--3--3-----------------|
|--2--2--2--1--------------|--2--2--2--1--------------|
|--1--1--1--1--------------|--1--1--1--1--------------|
|-----------1--0--0--0--0--|-----------1--0--0--0--0--|
pm             -  -  -  -                 -  -  -  -

|--------------------------|--------------------------|
|--------------------------|--------------------------|
|--3--3--3-----------------|--3--3--3-----------------|
|--2--2--2--1--------------|--2--2--2--1--------------|
|--1--1--1--1--------------|--1--1--1--1--------------|
|-----------1--0--0--0--0--|-----------1--0--0--0--0--|
pm             -  -  -  -                 -  -  -  -

|-----------------------|--------------------------|
|-----------------------|--------------------------|
|--3--3--3--------------|--3--3--3-----------------|
|--2--2--2--1--0--------|--2--2--2--3--3--3--1--1--|
|--1--1--1--1--0--------|--1--1--1--3--3--3--1--1--|
|-----------1--0--------|-----------3--3--3--1--1--|

|------------------------------|
|------------------------------|
|-----3-----------------3------|
|-----2-----------------2------|
|-----1-----------------1------|
|---------1-1-1-2-2-2----------|

|--------------------------|--------------------------|
|--------------------------|--------------------------|
|--3--3--3-----------------|--3--3--3-----------------|
|--2--2--2--1--------------|--2--2--2--1--------------|
|--1--1--1--1--------------|--1--1--1--1--------------|
|-----------1--0--0--0--0--|-----------1--0--0--0--0--|
pm             -  -  -  -                 -  -  -  -

|--------------------------|--------------------------|
|--------------------------|--------------------------|
|--3--3--3-----------------|--3--3--3-----------------|
|--2--2--2--1--------------|--2--2--2--1--------------|
|--1--1--1--1--------------|--1--1--1--1--------------|
|-----------1--0--0--0--0--|-----------1--0--0--0--0--|
pm             -  -  -  -                 -  -  -  -

|-----------------------|--------------------------|
|-----------------------|--------------------------|
|--3--3--3--------------|--3--3--3-----------------|
|--2--2--2--1--0--------|--2--2--2--3--3--3--1--1--|
|--1--1--1--1--0--------|--1--1--1--3--3--3--1--1--|
|-----------1--0--------|-----------3--3--3--1--1--|

|----------------------------------|
|----------------------------------|
|-----3--3-------------------------|
|-----2--2-------------------------|
|-----1--1-------------------------|
|-----------1-1-1-2-2-2-4-4--------|

Chorus: (01:20)
|------------------------|------------------------|
|-------------3----------|------------------------|
|-------------2----------|--7777---6666----5555---|
|--0----3--0--0--3--0----|--xxxx---xxxx----xxxx---|
|--0----3--0-----3--0----|--5555---4444----3333---|
|--0----3--0-----3--0----|------------------------|

|-------------------------|----------------------|
|-------------3-----------|----------------------|
|-------------2-----------|--------3--2----------|	
|--0----3--0--0--3---0----|--5--3--3--2--3--2----|
|--0----3--0-----3---0----|--5--3--1--0--3--2----|
|--0----3--0-----3---0----|--5--3--------3--2----|

|------------------------|------------------------|
|-------------3----------|------------------------|
|-------------2----------|--7777---6666----5555---|
|--0----3--0--0--3--0----|--xxxx---xxxx----xxxx---|
|--0----3--0-----3--0----|--5555---4444----3333---|
|--0----3--0-----3--0----|------------------------|

|-------------------------|----------------------|
|-------------3-----------|----------------------|
|-------------2-----------|--------3--2----------|	
|--0----3--0--0--3---0----|--5--3--3--2--3--2----|
|--0----3--0-----3---0----|--5--3--1--0--3--2----|
|--0----3--0-----3---0----|--5--3--------3--2----|

Verse Fill: (01:35)
|--------------|
|--------------|
|--------------|
|--------------|
|--------------|
|--0--0--0--0--|
pm -  -  -  -

Verse: (01:36)
|--------------------------|--------------------------|
|--------------------------|--------------------------|
|--3--3--3-----------------|--3--3--3-----------------|
|--2--2--2--1--------------|--2--2--2--1--------------|
|--1--1--1--1--------------|--1--1--1--1--------------|
|-----------1--0--0--0--0--|-----------1--0--0--0--0--|
pm             -  -  -  -                 -  -  -  -

|--------------------------|--------------------------|
|--------------------------|--------------------------|
|--3--3--3-----------------|--3--3--3-----------------|
|--2--2--2--1--------------|--2--2--2--1--------------|
|--1--1--1--1--------------|--1--1--1--1--------------|
|-----------1--0--0--0--0--|-----------1--0--0--0--0--|
pm             -  -  -  -                 -  -  -  -

|-----------------------|--------------------------|
|-----------------------|--------------------------|
|--3--3--3--------------|--3--3--3-----------------|
|--2--2--2--1--0--------|--2--2--2--3--3--3--1--1--|
|--1--1--1--1--0--------|--1--1--1--3--3--3--1--1--|
|-----------1--0--------|-----------3--3--3--1--1--|

|------------------------------|
|------------------------------|
|-----3-----------------3------|
|-----2-----------------2------|
|-----1-----------------1------|
|---------1-1-1-2-2-2----------|

|--------------------------|--------------------------|
|--------------------------|--------------------------|
|--3--3--3-----------------|--3--3--3-----------------|
|--2--2--2--1--------------|--2--2--2--1--------------|
|--1--1--1--1--------------|--1--1--1--1--------------|
|-----------1--0--0--0--0--|-----------1--0--0--0--0--|
pm             -  -  -  -                 -  -  -  -

|--------------------------|--------------------------|
|--------------------------|--------------------------|
|--3--3--3-----------------|--3--3--3-----------------|
|--2--2--2--1--------------|--2--2--2--1--------------|
|--1--1--1--1--------------|--1--1--1--1--------------|
|-----------1--0--0--0--0--|-----------1--0--0--0--0--|
pm             -  -  -  -                 -  -  -  -

|-----------------------|--------------------------|
|-----------------------|--------------------------|
|--3--3--3--------------|--3--3--3-----------------|
|--2--2--2--1--0--------|--2--2--2--3--3--3--1--1--|
|--1--1--1--1--0--------|--1--1--1--3--3--3--1--1--|
|-----------1--0--------|-----------3--3--3--1--1--|

|----------------------------------|
|----------------------------------|
|-----3--3-------------------------|
|-----2--2-------------------------|
|-----1--1-------------------------|
|-----------1-1-1-2-2-2-4-4--------|

Chorus: (02:04)
|------------------------|------------------------|
|-------------3----------|------------------------|
|-------------2----------|--7777---6666----5555---|
|--0----3--0--0--3--0----|--xxxx---xxxx----xxxx---|
|--0----3--0-----3--0----|--5555---4444----3333---|
|--0----3--0-----3--0----|------------------------|

|-------------------------|----------------------|
|-------------3-----------|----------------------|
|-------------2-----------|--------3--2----------|	
|--0----3--0--0--3---0----|--5--3--3--2--3--2----|
|--0----3--0-----3---0----|--5--3--1--0--3--2----|
|--0----3--0-----3---0----|--5--3--------3--2----|

|------------------------|------------------------|
|-------------3----------|------------------------|
|-------------2----------|--7777---6666----5555---|
|--0----3--0--0--3--0----|--xxxx---xxxx----xxxx---|
|--0----3--0-----3--0----|--5555---4444----3333---|
|--0----3--0-----3--0----|------------------------|

|-------------------------|----------------------|
|-------------3-----------|----------------------|
|-------------2-----------|--------3--2----------|	
|--0----3--0--0--3---0----|--5--3--3--2--3--2----|
|--0----3--0-----3---0----|--5--3--1--0--3--2----|
|--0----3--0-----3---0----|--5--3--------3--2----|

|------------------------|------------------------|
|-------------3----------|------------------------|
|-------------2----------|--7777---6666----5555---|
|--0----3--0--0--3--0----|--xxxx---xxxx----xxxx---|
|--0----3--0-----3--0----|--5555---4444----3333---|
|--0----3--0-----3--0----|------------------------|

|-------------------------|----------------------|
|-------------3-----------|----------------------|
|-------------2-----------|--------3--2----------|	
|--0----3--0--0--3---0----|--5--3--3--2--3--2----|
|--0----3--0-----3---0----|--5--3--1--0--3--2----|
|--0----3--0-----3---0----|--5--3--------3--2----|

|------------------------|------------------------|
|-------------3----------|------------------------|
|-------------2----------|--7777---6666----5555---|
|--0----3--0--0--3--0----|--xxxx---xxxx----xxxx---|
|--0----3--0-----3--0----|--5555---4444----3333---|
|--0----3--0-----3--0----|------------------------|

|-------------------------|----------------------|
|-------------3-----------|----------------------|
|-------------2-----------|--------3--2----------|	
|--0----3--0--0--3---0----|--5--3--3--2--3--2----|
|--0----3--0-----3---0----|--5--3--1--0--3--2----|
|--0----3--0-----3---0----|--5--3--------3--2----|

Bridge: (02:34)
|----------------------------------|----------------------------------|
|----------------------------------|----------------------------------|
|----------------------------------|----------------------------------|
|----------------------------------|----------------------------------| 
|----------------------------------|----------------------------------|
|--2-2-2-2-2-2-0-0-0-0-0-0-2-2-2-2-|--1-1-1-1-1-1-1-1-1-1-1-1-1-1-1-1-|

|----------------------------------|----------------------------------|
|----------------------------------|----------------------------------|
|----------------------------------|----------------------------------|
|----------------------------------|----------------------------------| 
|----------------------------------|----------------------------------|
|--2-2-2-2-2-2-0-0-0-0-0-0-2-2-2-2-|--1-1-1-1-1-1-1-1-1-1-1-1-1-1-1-1-|

|----------------------------------|----------------------------------|
|----------------------------------|----------------------------------|
|----------------------------------|----------------------------------|
|----------------------------------|----------------------------------| 
|----------------------------------|----------------------------------|
|--2-2-2-2-2-2-0-0-0-0-0-0-2-2-2-2-|--1-1-1-1-1-1-1-1-1-1-1-1-1-1-1-1-|

|----------------------------------|----------------------------------|
|----------------------------------|----------------------------------|
|----------------------------------|----------------------------------|
|----------------------------------|----------------------------------| 
|----------------------------------|----------------------------------|
|--2-2-2-2-2-2-0-0-0-0-0-0-2-2-2-2-|--1-1-1-1-1-1-1-1-1-1-1-1-1-1-1-1-|

|----------------------------------|----------------------------------|
|----------------------------------|----------------------------------|
|----------------------------------|----------------------------------|
|----------------------------------|----------------------------------| 
|----------------------------------|--------------0-0-1-1-1-1---------|
|--2-2-2-2-2-2-0-0-0-0-0-0-2-2-2-2-|--1-1-1-1-1-1-------------1-1-1-1-|
[ Tab from: http://www.guitartabs.cc/tabs/m/mudvayne/imn_tab.html ]
|----------------------------------|----------------------------------|
|----------------------------------|----------------------------------|
|----------------------------------|----------------------------------|
|----------------------------------|----------------------------------| 
|----------------------------------|--------------0-0-1-1-1-1---------|
|--2-2-2-2-2-2-0-0-0-0-0-0-2-2-2-2-|--1-1-1-1-1-1-------------1-1-1-1-|

Interlude: (02:56)
|-------------------------|------------------------|  
|-------------------------|------------------------|  
|--------9--------9-------|-------9--------9-------|  
|-----8-----8--------8----|----8-----8--------8----| 
|--7-----------7--------7-|-7-----------7--------7-|  
|-------------------------|------------------------|  

|-------------------------|-------------------------|
|-------------------------|-------------------------|
|--------8--------8-------|--------8--------8-------|
|-----7-----7--------7----|-----7-----7--------7----|
|--6-----------6--------6-|--6-----------6--------6-|
|-------------------------|-------------------------|

|-------------------------|------------------------|  
|-------------------------|------------------------|  
|--------9--------9-------|-------9--------9-------|  
|-----8-----8--------8----|----8-----8--------8----| 
|--7-----------7--------7-|-7-----------7--------7-|  
|-------------------------|------------------------|  

|-------------------------|-------------------------|
|-------------------------|-------------------------|
|--------8--------8-------|--------8--------8-------|
|-----7-----7--------7----|-----7-----7--------7----|
|--6-----------6--------6-|--6-----------6--------6-|
|-------------------------|-------------------------|

|---------------------|---------------------|            
|---------------------|---------------------|          
|--3------------3--3--|--2------------2--2--|
|--2------------2--2--|--1------------1--1--|      
|--1------------1--1--|--0------------0--0--|      
|---------------------|---------------------|          

|---------------------|-------------------|
|---------------------|-------------------|
|--3------------3--3--|----------3--------|  
|--2------------2--2--|----------2--------|  
|--1------------1--1--|----------1--------|  
|---------------------|-------------------|

|---------------------|------------------------|
|---------------------|------------------------|
|--2------------2--2--|------------------------|
|--1------------1--1--|------------------------|
|--0------------0--0--|------------------------|
|---------------------|---------0/20~~---------|

Bridge: (03:26)
|----------------------------------|----------------------------------|
|----------------------------------|----------------------------------|
|----------------------------------|----------------------------------|
|----------------------------------|----------------------------------| 
|----------------------------------|----------------------------------|
|--2-2-2-2-2-2-0-0-0-0-0-0-2-2-2-2-|--1-1-1-1-1-1-1-1-1-1-1-1-1-1-1-1-|

|----------------------------------|----------------------------------|
|----------------------------------|----------------------------------|
|----------------------------------|----------------------------------|
|----------------------------------|----------------------------------| 
|----------------------------------|----------------------------------|
|--2-2-2-2-2-2-0-0-0-0-0-0-2-2-2-2-|--1-1-1-1-1-1-1-1-1-1-1-1-1-1-1-1-|

|----------------------------------|----------------------------------|
|----------------------------------|----------------------------------|
|----------------------------------|----------------------------------|
|----------------------------------|----------------------------------| 
|----------------------------------|----------------------------------|
|--2-2-2-2-2-2-0-0-0-0-0-0-2-2-2-2-|--1-1-1-1-1-1-1-1-1-1-1-1-1-1-1-1-|

|----------------------------------|----------------------------------|
|----------------------------------|----------------------------------|
|----------------------------------|----------------------------------|
|----------------------------------|----------------------------------| 
|----------------------------------|----------------------------------|
|--2-2-2-2-2-2-0-0-0-0-0-0-2-2-2-2-|--1-1-1-1-1-1-1-1-1-1-1-1-1-1-1-1-|

|----------------------------------|----------------------------------|
|----------------------------------|----------------------------------|
|----------------------------------|----------------------------------|
|----------------------------------|----------------------------------| 
|----------------------------------|--------------0-0-1-1-1-1---------|
|--2-2-2-2-2-2-0-0-0-0-0-0-2-2-2-2-|--1-1-1-1-1-1-------------1-1-1-1-|

|----------------------------------|----------------------------------|
|----------------------------------|----------------------------------|
|----------------------------------|----------------------------------|
|----------------------------------|----------------------------------| 
|----------------------------------|--------------0-0-1-1-1-1---------|
|--2-2-2-2-2-2-0-0-0-0-0-0-2-2-2-2-|--1-1-1-1-1-1-------------1-1-1-1-|

Chorus: (03:48)
|------------------------|------------------------|
|-------------3----------|------------------------|
|-------------2----------|--7777---6666----5555---|
|--0----3--0--0--3--0----|--xxxx---xxxx----xxxx---|
|--0----3--0-----3--0----|--5555---4444----3333---|
|--0----3--0-----3--0----|------------------------|

|-------------------------|----------------------|
|-------------3-----------|----------------------|
|-------------2-----------|--------3--2----------|	
|--0----3--0--0--3---0----|--5--3--3--2--3--2----|
|--0----3--0-----3---0----|--5--3--1--0--3--2----|
|--0----3--0-----3---0----|--5--3--------3--2----|

|------------------------|------------------------|
|-------------3----------|------------------------|
|-------------2----------|--7777---6666----5555---|
|--0----3--0--0--3--0----|--xxxx---xxxx----xxxx---|
|--0----3--0-----3--0----|--5555---4444----3333---|
|--0----3--0-----3--0----|------------------------|

|-------------------------|----------------------|
|-------------3-----------|----------------------|
|-------------2-----------|--------3--2----------|	
|--0----3--0--0--3---0----|--5--3--3--2--3--2----|
|--0----3--0-----3---0----|--5--3--1--0--3--2----|
|--0----3--0-----3---0----|--5--3--------3--2----|

|------------------------|------------------------|
|-------------3----------|------------------------|
|-------------2----------|--7777---6666----5555---|
|--0----3--0--0--3--0----|--xxxx---xxxx----xxxx---|
|--0----3--0-----3--0----|--5555---4444----3333---|
|--0----3--0-----3--0----|------------------------|

|-------------------------|----------------------|
|-------------3-----------|----------------------|
|-------------2-----------|--------3--2----------|	
|--0----3--0--0--3---0----|--5--3--3--2--3--2----|
|--0----3--0-----3---0----|--5--3--1--0--3--2----|
|--0----3--0-----3---0----|--5--3--------3--2----|

|------------------------|------------------------|
|-------------3----------|------------------------|
|-------------2----------|--7777---6666----5555---|
|--0----3--0--0--3--0----|--xxxx---xxxx----xxxx---|
|--0----3--0-----3--0----|--5555---4444----3333---|
|--0----3--0-----3--0----|------------------------|

|-------------------------|----------------------|
|-------------3-----------|----------------------|
|-------------2-----------|--------3--2----------|	
|--0----3--0--0--3---0----|--5--3--3--2--3--2----|
|--0----3--0-----3---0----|--5--3--1--0--3--2----|
|--0----3--0-----3---0----|--5--3--------3--2----|

Outro: (04:17)
|----------------------------------|----------------------------------|
|----------------------------------|----------------------------------|
|----------------------------------|----------------------------------|
|----------------------------------|----------------------------------| 
|----------------------------------|----------------------------------|
|--2-2-2-2-2-2-0-0-0-0-0-0-2-2-2-2-|--1-1-1-1-1-1-1-1-1-1-1-1-1-1-1-1-|

|----------------------------------|----------------------------------|
|----------------------------------|----------------------------------|
|----------------------------------|----------------------------------|
|----------------------------------|----------------------------------| 
|----------------------------------|----------------------------------|
|--2-2-2-2-2-2-0-0-0-0-0-0-2-2-2-2-|--1-1-1-1-1-1-1-1-1-1-1-1-1-1-1-1-|

|----------------------------------|----------------------------------|
|----------------------------------|----------------------------------|
|----------------------------------|----------------------------------|
|----------------------------------|----------------------------------| 
|----------------------------------|----------------------------------|
|--2-2-2-2-2-2-0-0-0-0-0-0-2-2-2-2-|--1-1-1-1-1-1-1-1-1-1-1-1-1-1-1-1-|

|----------------------------------|----------------------------------|
|----------------------------------|----------------------------------|
|----------------------------------|----------------------------------|
|----------------------------------|----------------------------------| 
|----------------------------------|----------------------------------|
|--2-2-2-2-2-2-0-0-0-0-0-0-2-2-2-2-|--1-1-1-1-1-1-1-1-1-1-1-1-1-1-1-1-|

|-------------------------|--------------------------|
|-------------------------|--------------------------|
|-------------------------|--------------------------|
|-------------------------|--------------------------|
|-------------------------|--------------------------|
|--0-0-0-0-------0-0-0-0--|------0-0-0-0-----0-0-0-0-|
pm - - - -       - - - -         - - - -     - - - -     

|-----------------------------|------------------|
|-----------------------------|------------------|
|-----------------------------|------------------|
|-----------------------------|------------------| 
|-----------------------------|------------------|     
|---0-0-0-0--0-0-0-0--0-0-0-0-|--0-0-0-0-0-0-0-0-|
    - - - -  - - - -  - - - -    - - - - - - - -
|-------------------------|--------------------------|
|-------------------------|--------------------------|
|-------------------------|--------------------------|
|-------------------------|--------------------------|
|-------------------------|--------------------------|
|--0-0-0-0-------0-0-0-0--|------0-0-0-0-----0-0-0-0-|
pm - - - -       - - - -         - - - -     - - - -     

|-----------------------------|------------------|
|-----------------------------|------------------|
|-----------------------------|------------------|
|-----------------------------|------------------| 
|-----------------------------|------------------|     
|---0-0-0-0--0-0-0-0--0-0-0-0-|--0-0-0-0-0-0-0-0-|
    - - - -  - - - -  - - - -    - - - - - - - -
|-------------------------|--------------------------|
|-------------------------|--------------------------|
|-------------------------|--------------------------|
|-------------------------|--------------------------|
|-------------------------|--------------------------|
|--0-0-0-0-------0-0-0-0--|------0-0-0-0-----0-0-0-0-|
pm - - - -       - - - -         - - - -     - - - -     

|-----------------------------|------------------|
|-----------------------------|------------------|
|-----------------------------|------------------|
|-----------------------------|------------------| 
|-----------------------------|------------------|     
|---0-0-0-0--0-0-0-0--0-0-0-0-|--0-0-0-0-0-0-0-0-|
    - - - -  - - - -  - - - -    - - - - - - - -
|-------------------------|--------------------------|
|-------------------------|--------------------------|
|-------------------------|--------------------------|
|-------------------------|--------------------------|
|-------------------------|--------------------------|
|--0-0-0-0-------0-0-0-0--|------0-0-0-0-----0-0-0-0-|
pm - - - -       - - - -         - - - -     - - - -     

|-----------------------------|------------------|
|-----------------------------|------------------|
|-----------------------------|------------------|
|-----------------------------|------------------| 
|-----------------------------|------------------|     
|---0-0-0-0--0-0-0-0--0-0-0-0-|--0-0-0-0-0-0-0-0-|   Fade Out.
    - - - -  - - - -  - - - -    - - - - - - - 

And that's it. It sounds mostly right to me so please rate this tab.
Comments