Mudvayne - Happy Chords & Tabs

 

Happy Chords & Tabs

Mudvayne Chords & Tabs

Version: 1 Type: Tab 12 ratings
1 star 2 stars 3 stars 4 stars 5 stars
comments

Happy Tab

Main Verse
|---------------------------------------------|
|---------------------------------------------|
|---------12-12-12-12-12-12-12-12-12-12-12-12-|
|-5-5-5-5-x--x--x--x--x--x--x--x--x--x--x--x--|
|-5-5-5-5-10-10-10-10-10-10-10-10-10-10-10-10-|
|-5-5-5-5-------------------------------------|

|---------------------------------------------|
|---------------------------------------------|
|---------12-12-12-12-12-12-12-12-12-12-12-12-|
|-8-8-8-8-x--x--x--x--x--x--x--x--x--x--x--x--|
|-8-8-8-8-10-10-10-10-10-10-10-10-10-10-10-10-|
|-8-8-8-8-------------------------------------|

|---------------------------------------------|
|---------------------------------------------|
|---------12-12-12-12-12-12-12-12-12-12-12-12-|
|-3-3-3-3-x--x--x--x--x--x--x--x--x--x--x--x--|
|-3-3-3-3-10-10-10-10-10-10-10-10-10-10-10-10-|
|-3-3-3-3-------------------------------------|

|---------------------------|
|---------------------------|
|---------------------------|.
|-1-1-1-1--1--0-0-0-1-1-3-3-|.2x
|-1-1-1-1--1--0-0-0-1-1-3-3-|
|-1-1-1-1--1--0-0-0-1-1-3-3-|
p.m.	      . . . 

Chorus (Clean)
|-------------------------|---------------------------|
|-------------------------|---------------------------|
|-------5----------5------|--------10----------10-----|
|-----5---5----------5----|------8----8-----------8---|
|---5-------5----------5--|----8--------8-----------8-|
|-5--------------5--------|--8---------------8--------|

|-------------------------|-------------------------|
|-------------------------|-------------------------|
|-------5----------5------|--------3----------3-----|.
|-----3---3----------3----|------1---1----------1---|.2x
|---3-------3----------3--|----1-------1----------1-|
|-3--------------3--------|--1--------------1-------|

(Distortion)
|-----------------------------------|-----------------------------------|
|-----------------------------------|-----------------------------------|
|-----------------------------------|-----------------------------------|
|-------8-8-8-------8-8-8-------8-8-|-------8-8-8-------8-8-8-------8-8-|
|-----------------------------------|-----------------------------------|
|-5-5-5-------5-5-5-------5-5-5-----|-8-8-8-------8-8-8-------8-8-8-----|
p.m.. . . . . . . . . . . . . . . . . . . . . . . . . . . . . . . . . .

|-----------------------------------|-----------------------------------|
|-----------------------------------|-----------------------------------|
|-----------------------------------|-----------------------------------|
|-------5-5-5-------5-5-5-------5-5-|-------5-5-5-------5-5-5-------5-5-|
|-----------------------------------|-----------------------------------|
|-3-3-3-------3-3-3-------3-3-3-----|-2-2-2-------2-2-2-------3-3-3-----|
  . . . . . . . . . . . . . . . . . . . . . . . . . . . . . . . . . . .

|-----------------------------------|-----------------------------------|
|-----------------------------------|-----------------------------------|
|-----------------------------------|-----------------------------------|
|-------8-8-8-------8-8-8-------8-8-|-------8-8-8-------8-8-8-------8-8-|
|-----------------------------------|-----------------------------------|
|-5-5-5-------5-5-5-------5-5-5-----|-8-8-8-------8-8-8-------8-8-8-----|
  . . . . . . . . . . . . . . . . . . . . . . . . . . . . . . . . . . .
  
|-----------------------------------|-----------------------------------|
|-----------------------------------|-----------------------------------|
|-----------------------------------|-----------------------------------|
|-------5-5-5-------5-5-5-------5-5-|-------5-5-5-------5-5-5-------5-5-|
|-----------------------------------|-----------------------------------|
|-3-3-3-------3-3-3-------3-3-3-----|-2-2-2-------2-2-2-------3-3-3-----|
  . . . . . . . . . . . . . . . . . 
  
(Guitar 2 Fill)
|-------------------------------------------------|
|-------------------10-10-10----------------------|
|----------------------------10-10-10-------------|
|-12-12-12----------------------------12-12-------|
|----------13-13-13-------------------------13-13-|
|-------------------------------------------------|

|-------------------------------------------------|
|-------------------10-10-10----------------------|
|----------------------------10-10-10-------------|
|-12-12-12----------------------------12-12-------|
|----------13-13-13-------------------------13-13-|
|-------------------------------------------------|

|-------------------------------------------------|
|-------------------10-10-10----------------------|
|----------------------------10-10-10-------------|
|-12-12-12----------------------------12-12-------|
|----------10-10-10-------------------------10-10-|
|-------------------------------------------------| 

Main Verse
|---------------------------------------------|
|---------------------------------------------|
|---------12-12-12-12-12-12-12-12-12-12-12-12-|
|-5-5-5-5-x--x--x--x--x--x--x--x--x--x--x--x--|
|-5-5-5-5-10-10-10-10-10-10-10-10-10-10-10-10-|
|-5-5-5-5-------------------------------------|

|---------------------------------------------|
|---------------------------------------------|
|---------12-12-12-12-12-12-12-12-12-12-12-12-|
|-8-8-8-8-x--x--x--x--x--x--x--x--x--x--x--x--|
|-8-8-8-8-10-10-10-10-10-10-10-10-10-10-10-10-|
|-8-8-8-8-------------------------------------|

|---------------------------------------------|
|---------------------------------------------|
|---------12-12-12-12-12-12-12-12-12-12-12-12-|
|-3-3-3-3-x--x--x--x--x--x--x--x--x--x--x--x--|
|-3-3-3-3-10-10-10-10-10-10-10-10-10-10-10-10-|
|-3-3-3-3-------------------------------------|

|---------------------------|
|---------------------------|
|---------------------------|.
|-1-1-1-1--1--0-0-0-1-1-3-3-|.2x
|-1-1-1-1--1--0-0-0-1-1-3-3-|
|-1-1-1-1--1--0-0-0-1-1-3-3-|
p.m.	      . . . 

Chorus
|-----------------------------------|-----------------------------------|
|-----------------------------------|-----------------------------------|
|-----------------------------------|-----------------------------------|
|-------8-8-8-------8-8-8-------8-8-|-------8-8-8-------8-8-8-------8-8-|
|-----------------------------------|-----------------------------------|
|-5-5-5-------5-5-5-------5-5-5-----|-8-8-8-------8-8-8-------8-8-8-----|
p.m.. . . . . . . . . . . . . . . . . . . . . . . . . . . . . . . . . .

|-----------------------------------|-----------------------------------|
|-----------------------------------|-----------------------------------|
|-----------------------------------|-----------------------------------|
|-------5-5-5-------5-5-5-------5-5-|-------5-5-5-------5-5-5-------5-5-|
|-----------------------------------|-----------------------------------|
|-3-3-3-------3-3-3-------3-3-3-----|-2-2-2-------2-2-2-------3-3-3-----|
  . . . . . . . . . . . . . . . . . . . . . . . . . . . . . . . . . . .
  
|-----------------------------------|-----------------------------------|
|-----------------------------------|-----------------------------------|
|-----------------------------------|-----------------------------------|
|-------8-8-8-------8-8-8-------8-8-|-------8-8-8-------8-8-8-------8-8-|
|-----------------------------------|-----------------------------------|
|-5-5-5-------5-5-5-------5-5-5-----|-8-8-8-------8-8-8-------8-8-8-----|
  . . . . . . . . . . . . . . . . . . . . . . . . . . . . . . . . . . .

|-----------------------------------|-----------------------------------|
|-----------------------------------|-----------------------------------|
|-----------------------------------|-----------------------------------|
|-------5-5-5-------5-5-5-------5-5-|-------5-5-5-------5-5-5-------5-5-|
|-----------------------------------|-----------------------------------|
|-3-3-3-------3-3-3-------3-3-3-----|-2-2-2-------2-2-2-------3-3-3-----|
  . . . . . . . . . . . . . . . . . . . . . . . . . . . . . . . . . . .
[ Tab from: http://www.guitartabs.cc/tabs/m/mudvayne/happy_tab.html ]
|-----------------------------------|-----------------------------------|
|-----------------------------------|-----------------------------------|
|-----------------------------------|-----------------------------------|
|-------8-8-8-------8-8-8-------8-8-|-------8-8-8-------8-8-8-------8-8-|
|-----------------------------------|-----------------------------------|
|-5-5-5-------5-5-5-------5-5-5-----|-8-8-8-------8-8-8-------8-8-8-----|
  . . . . . . . . . . . . . . . . . . . . . . . . . . . . . . . . . . .
  
|-------------------------------------------------|
|-------------------------------------------------|
|-------------------------------------------------|
|-------5-5-5-------5-5-5-------5-5-------5-5-5---|
|-------------------------------------------------|
|-3-3-3-------3-3-3-------3-3-3-----2-2-2-------2-|
  . . . . . . . . . . . . . . . . . . . . . . . .
  
(Guitar 2 Fill)
|-------------------------------------------------|
|----------11-11-11----------11-11-11-------11-11-|
|-------------------------------------------------|
|-------------------------------------------------|
|-10-10-10----------10-10-10----------10-10-------|
|-------------------------------------------------|

|-------------------------------------------------|
|----------11-11-11----------11-11-11-------11-11-|
|-------------------------------------------------|
|-------------------------------------------------|
|-13-13-13----------13-13-13----------13-13-------|
|-------------------------------------------------|

|-------------------------------------------------|----------------------|
|-------------------------------------------------|----------------------|
|----------12-12-12----------12-12-12-------12-12-|----------12-12-------|
|-------------------------------------------------|----------------------|
|-10-10-10----------10-10-10----------10-10-------|-10-10-10-------10-10-|
|-------------------------------------------------|----------------------|
  
|-------------------------|
|-------------------------|
|-12-12-12-12-12-12-12-12-|
|-x--x--x--x--x--x--x--x--|
|-10-10-10-10-10-10-10-10-|
|-------------------------|

Main Verse
|---------------------------------------------|
|---------------------------------------------|
|---------12-12-12-12-12-12-12-12-12-12-12-12-|
|-5-5-5-5-x--x--x--x--x--x--x--x--x--x--x--x--|
|-5-5-5-5-10-10-10-10-10-10-10-10-10-10-10-10-|
|-5-5-5-5-------------------------------------|

|---------------------------------------------|
|---------------------------------------------|
|---------12-12-12-12-12-12-12-12-12-12-12-12-|
|-8-8-8-8-x--x--x--x--x--x--x--x--x--x--x--x--|
|-8-8-8-8-10-10-10-10-10-10-10-10-10-10-10-10-|
|-8-8-8-8-------------------------------------|

|---------------------------------------------|
|---------------------------------------------|
|---------12-12-12-12-12-12-12-12-12-12-12-12-|
|-3-3-3-3-x--x--x--x--x--x--x--x--x--x--x--x--|
|-3-3-3-3-10-10-10-10-10-10-10-10-10-10-10-10-|
|-3-3-3-3-------------------------------------|

|---------------------------|
|---------------------------|
|---------------------------|.
|-1-1-1-1--1--0-0-0-1-1-3-3-|.2x
|-1-1-1-1--1--0-0-0-1-1-3-3-|
|-1-1-1-1--1--0-0-0-1-1-3-3-|
p.m.	      . . . 

Pre Bridge
|-----------------------|-----------------------|-----------------------|
|-----------------------|-----------------------|-----------------------|
|------8\7-7-7----7/8\7-|------8\7-7-7----7/8\7-|------8\7-7-7----7/8\7-|
|-0----x\x-x-x----x/x\x-|-0----x\x-x-x----x/x\x-|-0----x\x-x-x----x/x\x-|
|-0----6\5-5-5----5/6\5-|-0----6\5-5-5----5/6\5-|-0----6\5-5-5----5/6\5-|
|-0---------------------|-0---------------------|-0---------------------|

|----------------------------|
|----------------------------|
|------8\7--7-7-7-7-8-8-8-10-|
|-0----x\x--x-x-x-x-x-x-x-x--|
|-0----6\5--5-5-5-5-6-6-6-8--|
|-0--------------------------|

Bridge (Acoustic)
|--------------------------|--------------------------|
|--------------------------|--------------------------|
|--------------------------|--------------------------|
|-5---5--5-5--5-5--5-5-5-5-|-8---8--8-8--8-8--8-8-8-8-|
|-5---5--5-5--5-5--5-5-5-5-|-8---8--8-8--8-8--8-8-8-8-|
|-5---5--5-5--5-5--5-5-5-5-|-8---8--8-8--8-8--8-8-8-8-|

|--------------------------|--------------------------|
|--------------------------|--------------------------|
|--------------------------|--------------------------|.
|-3---3--3-3--3-3--3-3-3-3-|-1---1--1-1--1-1--1-1-1-1-|.2x
|-3---3--3-3--3-3--3-3-3-3-|-1---1--1-1--1-1--1-1-1-1-|
|-3---3--3-3--3-3--3-3-3-3-|-1---1--1-1--1-1--1-1-1-1-|

(Guitar 2 Fill)
|-------------------------|-10-------10-------10----|
|-11-10----11-10----11-10-|----11-------11-------11-|
|-------10-------10-------|-------12-------12-------|
|-------------------------|-------------------------|
|-------------------------|-------------------------|
|-------------------------|-------------------------|

|-------------------------|-------------------------|
|-11-10----11-10----11-10-|-11-10----11-10----11-10-|
|-------10-------10-------|-------10-------10-------|.
|-------------------------|-------------------------|.2x
|-------------------------|-------------------------|
|-------------------------|-------------------------|

(Distortion)
|---------------|----------------|-----------------|---------------------------|
|---------------|----------------|-----------------|---------------------------|
|---------------|----------------|-----------------|---------------------------|
|-5-5-5-5-------|-8-8-8-8--------|-3-3-3-3---------|-1-1-1-1--1--0-0-0-1-1-3-3-|
|-5-5-5-5-------|-8-8-8-8--------|-3-3-3-3---------|-1-1-1-1--1--0-0-0-1-1-3-3-|
|-5-5-5-5-------|-8-8-8-8--------|-3-3-3-3---------|-1-1-1-1--1--0-0-0-1-1-3-3-|
p.m.	      					                 . . . 

Main Verse
|---------------------------------------------|
|---------------------------------------------|
|---------12-12-12-12-12-12-12-12-12-12-12-12-|
|-5-5-5-5-x--x--x--x--x--x--x--x--x--x--x--x--|
|-5-5-5-5-10-10-10-10-10-10-10-10-10-10-10-10-|
|-5-5-5-5-------------------------------------|

|---------------------------------------------|
|---------------------------------------------|
|---------12-12-12-12-12-12-12-12-12-12-12-12-|
|-8-8-8-8-x--x--x--x--x--x--x--x--x--x--x--x--|
|-8-8-8-8-10-10-10-10-10-10-10-10-10-10-10-10-|
|-8-8-8-8-------------------------------------|

|---------------------------------------------|
|---------------------------------------------|
|---------12-12-12-12-12-12-12-12-12-12-12-12-|
|-3-3-3-3-x--x--x--x--x--x--x--x--x--x--x--x--|
|-3-3-3-3-10-10-10-10-10-10-10-10-10-10-10-10-|
|-3-3-3-3-------------------------------------|

|---------------------------|
|---------------------------|
|---------------------------|.
|-1-1-1-1--1--0-0-0-1-1-3-3-|.2x
|-1-1-1-1--1--0-0-0-1-1-3-3-|
|-1-1-1-1--1--0-0-0-1-1-3-3-|
p.m.	      . . . 

|---------------------------------------------|
|---------------------------------------------|
|---------12-12-12-12-12-12-12-12-12-12-12-12-|
|-5-5-5-5-x--x--x--x--x--x--x--x--x--x--x--x--|
|-5-5-5-5-10-10-10-10-10-10-10-10-10-10-10-10-|
|-5-5-5-5-------------------------------------|

|---------------------------------------------|
|---------------------------------------------|
|---------12-12-12-12-12-12-12-12-12-12-12-12-|
|-8-8-8-8-x--x--x--x--x--x--x--x--x--x--x--x--|
|-8-8-8-8-10-10-10-10-10-10-10-10-10-10-10-10-|
|-8-8-8-8-------------------------------------|

|---------------------------------------------|
|---------------------------------------------|
|---------12-12-12-12-12-12-12-12-12-12-12-12-|
|-3-3-3-3-x--x--x--x--x--x--x--x--x--x--x--x--|
|-3-3-3-3-10-10-10-10-10-10-10-10-10-10-10-10-|
|-3-3-3-3-------------------------------------|

|--------------------------|
|--------------------------|
|-----------5-5-5-5--------|
|-1-1-1-1---x-x-x-x----8\3-|
|-1-1-1-1---3-3-3-3----8\3-|
|-1-1-1-1--------------8\3-|

Outro Verse
|---------------------------------|------------------------------------|
|---------------------------------|------------------------------------|
|---------------------------------|------------------------------------|
|-5-5-5-5-8-5-5-5--5-8-5--5-5-8-5-|-8-8-8-8-10-8-8-8--8-10-8--8-8-10-8-|
|-5-5-5-5-8-5-5-5--5-8-5--5-5-8-5-|-8-8-8-8-10-8-8-8--8-10-8--8-8-10-8-|
|-5-5-5-5-8-5-5-5--5-8-5--5-5-8-5-|-8-8-8-8-10-8-8-8--8-10-8--8-8-10-8-|

|---------------------------------|---------------------------------|
|---------------------------------|---------------------------------|
|---------------------------------|---------------------------------|
|-3-3-3-3-5-3-3-3--3-5-3--3-3-5-3-|-1-1-1-1-1-1-1-1-3-3-3-3-3-3-3-3-|
|-3-3-3-3-5-3-3-3--3-5-3--3-3-5-3-|-1-1-1-1-1-1-1-1-3-3-3-3-3-3-3-3-|
|-3-3-3-3-5-3-3-3--3-5-3--3-3-5-3-|-1-1-1-1-1-1-1-1-3-3-3-3-3-3-3-3-|

|---------------------------------|------------------------------------|
|---------------------------------|------------------------------------|
|---------------------------------|------------------------------------|
|-5-5-5-5-8-5-5-5--5-8-5--5-5-8-5-|-8-8-8-8-10-8-8-8--8-10-8--8-8-10-8-|
|-5-5-5-5-8-5-5-5--5-8-5--5-5-8-5-|-8-8-8-8-10-8-8-8--8-10-8--8-8-10-8-|
|-5-5-5-5-8-5-5-5--5-8-5--5-5-8-5-|-8-8-8-8-10-8-8-8--8-10-8--8-8-10-8-|

|---------------------------------|-----------------------------------|
|---------------------------------|-----------------------------------|
|---------------------------------|------------5-5-5-5----------------|
|-3-3-3-3-5-3-3-3--3-5-3--3-3-5-3-|--1-1-1-1---x-x-x-x----8\3-1-1-1-1-|
|-3-3-3-3-5-3-3-3--3-5-3--3-3-5-3-|--1-1-1-1---3-3-3-3----8\3-1-1-1-1-|
|-3-3-3-3-5-3-3-3--3-5-3--3-3-5-3-|--1-1-1-1--------------8\3-1-1-1-1-|
Comments