Mudvayne - Forget To Remember Chords & Tabs

 

Forget To Remember Chords & Tabs

Mudvayne Chords & Tabs

Version: 1 Type: Bass Tab 0 ratings
1 star 2 stars 3 stars 4 stars 5 stars
comments

Forget To Remember Bass Tab

Band- Mudvayne
Song- Forgot To Remember

intro
 F[---------------------------------------------------------------]
 C[---------------------------------------------------------------]
 G[---------------------------------------------------------------]  
 C[-0-0-0-0--0--0-0-0-0--0-0-0/8-8-8-8--8--8--3-3-3-0-3h5p3-0-----]x3

 F[---------------------------------------------------------------]
 C[---------------------------------------------------------------]
 G[---------------------------------------------------------------]  
 C[-0-0-0-0--0--0-0-0-0--0-0-0/8-8-8-8--8--8--3-3-3-0-3h5---------]
   

   verse 1     0:30
 F[--------------------------------------------------------------------10h12---]
 C[-------------------------------------------------------101010101010---------]
 G[--*-------------------------------------------------------------------------]  
 C[-12~~~~~~~~-7--7h8/101010101010-7--0~~~~~~~~~~~-7-7h8-------------------7-]

 F[----------------------------------------------------------------------------------]
 C[----------------------------------0---------------------------------------------0-]
 G[------------------8-8h10-3--3-0-3----------------------------------8h10p8---------]  
 C[-0-0h7p0-7h8p7-0--------------------0h7p0-7-8-7-7-3-3--3-3-3--030--------0-5h7---]

 F[-----------------------------------------------------------------------------]
 C[------------------------------------------0----------------------------------]
 G[-------------------7/8-888h10p8-3-333-3--------------------8-8888---3-3333-]  
 C[-0h7p0-7h8p7~~~~---------------------0-----7--8--10p8-7-0---------0--------]

   chorus
 F[-----------------------------------------------------------]
 C[-----------------------------------------------------------]
 G[-----------------------------------------------------------]  
 C[-0-0-0-0--0--0-0-0-0--0-0-0/8-8-8-8--8--8--3-3-3-0-3h5p3-0-]x3

 F[-----------------------------------------------------------]
 C[-----------------------------------------------------------]
 G[-----------------------------------------------------------]  
 C[-0-0-0-0--0--0-0-0-0--0-0-0--8-8-8-8--8--8--3-3-3-0-3h5----]

   verse 2
 F[--------------------------------------------------------------------10h12---]
 C[-------------------------------------------------------101010101010---------]
 G[--*-------------------------------------------------------------------------]  
 C[-12~~~~~~~~-7--7h8/101010101010-7--0~~~~~~~~~~~-7-7h8-------------------7-]

 F[-----------------------------------------------------------------------------------------]
 C[-----------------------------------------------------------------10----------------------]
 G[-----------------------8-88-8h10p8--3-33p0h3-----------------0-8----8-8------------------]  
 C[-0-0h7p0-7h8p7-7h8p7-0----------------------0h7p0-7-8-7-7-------------7-0-0-7p0-10-10h12]
[ Tab from: http://www.guitartabs.cc/tabs/m/mudvayne/forget_to_remember_btab.html ]
 F[-----------------------------------------------------------------------------]
 C[------------------------------------------0----------------------------5-5-5-]
 G[-------------------7/8-888h10p8-3-333-3--------------------8-8888---3-3-3--]  
 C[-0h7p0-7h8p7~~~~---------------------0-----7--8--10p8-7-0---------0--------]

   chorus
 F[-----------------------------------------------------------]
 C[-----------------------------------------------------------]
 G[-----------------------------------------------------------]  
 C[-0-0-0-0--0--0-0-0-0--0-0-0/8-8-8-8--8--8--3-3-3-0-3h5p3-0-]x3

 F[-----------------------------------------------------------]
 C[-----------------------------------------------------------]
 G[-----------------------------------------------------------]  
 C[-0-0-0-0--0--0-0-0-0--0-0-0/8-8-8-8--8--8--3-3-3-0-3h5-0---]

   bridge
 F[-----------------------------------------------]
 C[-----------------------------------------------]
 G[--------/7-7-77-8p7----1-1-11-3-3--------------]  
 C[-00-0-0------------8p7------------3p2-02h3p2-0-]x3

 F[-----------------------------------------------]
 C[----------------------------3-3---5-5-5--------]
 G[--------/7-77712121010881111-1-113-3-3---------]  
 C[-00-0-0--------------------------------3p2-0-0-]

   bridge 2
 F[-----------------------------------------------]
 C[------0--------0-0------0--------0-0-0h1-1h3---]
 G[-----------------------------------------------]  
 C[-00-0---X-0-00-----00-0---X-0-00----X----------]x2
    ss s p s s ss p s ss s p s s ss p ssp   s

   chorus
 F[-----------------------------------------------------------]
 C[-----------------------------------------------------------]
 G[-----------------------------------------------------------]  
 C[-0-0-0-0--0--0-0-0-0--0-0-0/8-8-8-8--8--8--3-3-3-0-3h5p3-0-]x3

 F[-----------------------------------------------------------]
 C[-----------------------------------------------------------]
 G[-----------------------------------------------------------]  
 C[-0-0-0-0--0--0-0-0-0--0-0-0/8-8-8-8--8--8--3-3-3-0-3h5-0---]

   outro chorus 
 F[-----------------------------------------]
 C[-----------------------------------------]
 G[-------/7777778p7--111113----------------]  
 C[-00-0------------8-------3p2-2p0-2h3-2p0-]

F[-------------------------------------------]
 C[------------------------3-3---5-5---------]
 G[-------/7777778p7----111-1-113-3----------]  
 C[-00-0------------8p7--------------3p2-0-0-]

 F[------------------------------------------]
 C[------------------------------------------]
 G[-------/7777778p7--111113-----------------]  
 C[-00-0------------8-------3p2-2p0-2h3-2p0--]

 F[----------------------------------------------]
 C[---------------------------3-3---5-5-5--------]
 G[--------/777712121010881111-1-113-3-3---------]  
 C[-00-0-0--------------------------------3p2-0-0]

   outro
 F[---------------------------------------------]
 C[------0--------0-0------0--------0-0-0h1-1h3-]
 G[---------------------------------------------]  
 C[-00-0---X-0-00-----00-0---X-0-00----X--------]
Comments