Mudvayne - Fall Into Sleep Chords & Tabs

 

Fall Into Sleep Chords & Tabs

Mudvayne Chords & Tabs

Version: 1 Type: Bass Tab

Fall Into Sleep Bass Tab

   
Band- Mudvayne
Song- Fall Into Sleep

Key:
     X = muted note
     meld = meld is a word i made for two really fastley played notes that 
            sound like one note

Tuning:F
       C
       G
       C

  Intro
F[----------------]
C[0-0-0-0-0-0-0-0~]
G[----------------]
C[----------------]x4

  Verse
F[------------------------------------------------------------------]
C[------------------------------------------------------------------]
G[------------887------------2235------------665-----------------]
C[000000000000----333333333333-----333333333333----22222222111121010-]rpt

  Pre-Chorus
F[----------------]
C[0-0-0-0-0-0-0-0~]
G[----------------]
C[----------------]x4
                                                           G[3]
  Chorus                       !- of u could use a meld of C[3] very staccato tho
F[-----------------------------X-------------------------------]
C[-----------------------------X-------------------------------]
G[------5~875785---------------X-------5~875785-888777333222320]
C[000000--------333333-0~-0~-0hX-000000------------------------]rpt

  2nd Verse
F[---------------------------------------]
C[---------------------------------------]
G[---------------------------------------]
C[00434-00434-0043-[x3]-22222222111121010]

F[------------------------------------------------------------------]
C[------------------------------------------------------------------]
G[------------887------------2235------------665-----------------]
C[000000000000----333333333333-----333333333333----22222222111121010]

  Pre-Chorus
F[----------------]
C[0-0-0-0-0-0-0-0~]
G[----------------]
C[----------------]x2
[ Tab from: http://www.guitartabs.cc/tabs/m/mudvayne/fall_into_sleep_btab.html ]
  Chorus
F[-----------------------------X-------------------------------]
C[-----------------------------X-------------------------------]
G[------5~875785---------------X-------5~875785-888777333222320]
C[000000--------333333-0~-0~-0hX-000000------------------------]rpt

  Bridge                                             / 1 ending / 2nd ending
F[---------------------------------------------------[----------[------------]
C[--2~3--232--3~----------------------777555333222000[-0--------[-2----------]
G[00---00---00---[x2]--------------------------------[----------[------------]
C[--------------------000222333555778----------------[----------[------------]

  Last Pre-Chorus
F[----------------------------------]
C[0-0-0-0-0-0-0-0~0-0-0-0-0-0-0-0~~~]
G[----------------------------------]
C[----------------------------------]

  Last Chorus
F[---------------------------------------------------------------]
C[---------------------------------------------------------------]
G[------5~875785-------------------------5~875785-888777333222320]
C[000000--------333333-0~-0~-0h333-000000------------------------]

F[-------------------------------------------------------------------------------]
C[-------------------------------------------------------------------------------]
G[------5~/10h111085-------------------------5~875785-888777333222888777333222320]
C[000000------------333333-0~-0~-0h333-000000------------------------------------]

  Post-Chorus
F[----------------]
C[0-0-0-0-0-0-0-0~]
G[----------------]
C[----------------]x2

  Outro
F[-------------------------------------------------------------------]
C[-------------------------------------------------------------------]
G[------------887------------2235------------665------------------]
C[000000000000----333333333333-----333333333333----2222222211112~~1~0]

All right guys thats that and as always plz RaTE.  o and i know what ur thinking 
\"this meld thing is nothing different then a chord\" well the 33 thing is a chord
the 0h33 thing is the meld and u might say well thats a hammer onto a chord but
when u play it.... ull understand