Mudvayne - Everything And Nothing Chords & Tabs

 

Everything And Nothing Chords & Tabs

Mudvayne Chords & Tabs

Version: 2 Type: Tab 0 ratings
1 star 2 stars 3 stars 4 stars 5 stars
comments

Everything And Nothing Tab

   
Song: "Everything and Nothing"
Artist: Mudvayne
Album: L.D. 50
Transcribed By: thomas hassler

Tuning: Drop D, Down 1 1/2 Steps (B,F#,B,E,G#,C#)

VERSE:
|--------------------|
|--------------------|
|------7-77------7/8-|
|-0-00------0-00-----|
|--------------------|
|--------------------|

CHORUS:
|--------------------|
|--------------------|
|------7-77------7/8-|
|-0-00-X-XX-0-00-X-X-|
|-0-00-5-55-0-00-5/6-|
|-0-00------0-00-----|
[ Tab from: http://www.guitartabs.cc/tabs/m/mudvayne/everything_and_nothing_tab_ver_2.html ]
FILL:
|----------------|
|----------------|
|-7777-9999-1010-|
|-7777-9999-1010-|
|-5555-7777--8-8-|
|----------------|

INTERLUDE:
|-------------------------|
|-------------------------|
|-------------------------|
|-4-5---------------------|
|-2-3-0-2--2-0-2--2-3-2-0-|
|-----0-2--2-0-2--2-3-2-0-|

FILL 2:
|-----------------|
|-----------------|
|-7-7-------10-10-|
|-7-7--8-8--10-10-|
|-5-5--8-8---8--8-|
|------8-8--------|

CHORUS FILL:
|---------------|
|---------------|
|---------------|
|---------------|
|-8-0--8-0--8-0-|
|-8-0--8-0--8-0-|

OUTRO:
|--------------------|
|--------------------|
|--------------------|
|--------------------|
|-0-0-3-0-0--3-0-3-0-|
|-0-0-3-0-0--3-0-3-0-|
Comments