Mudvayne - Dig Chords & Tabs

 

Dig Chords & Tabs

Mudvayne Chords & Tabs

Version: 6 Type: Bass Tab 0 ratings
1 star 2 stars 3 stars 4 stars 5 stars
comments

Dig Bass Tab

   
-----------------------------------------------------------------------------
			     Dig - Mudvayne L.D.50
-----------------------------------------------------------------------------

Tabbed By : David K.
e-mail: Mudfandkbass@VerizonMail.com

Tuning: B,E,A,D,G


Alright, here's the deal. I'm sick of seeing all the wrong Bass tabs for Dig.
So I am going to give you the right one, since I play it all the time!
Also, please rate this-It's my 3rd bass tab!
Tuning=B,E,A,D,G
 *= play like you have a pick.
 P= pop
 S= slap
 ?\?= slide up to
 /= slide down
 ^= Mute Pop
 += Mute Slap
G|-----6-----6-----6-----6-----6-----6-----6-----6--------------------------|
D|-----5-----5-----5-----5-----5-----5-----5-----5--------------------------|
A|--------------------------------------------------------------------------|
E|--------------------------------------------------------------------------|
B|-0-0---0-0---0-0---0-0---0-0---000---0-0---000----------------------------|
   s s p s s p s s p s s p s s p sss p s s p sss p 
When Ryan stops doing this, then do the part below.

G|-----2\-----11/----2\-----11/----2\-----11/----2\-----11/-----------------|
D|-----2\-----11/----2\-----11/----2\-----11/----2\-----11/-----------------|
A|--------------------------------------------------------------------------|
E|--------------------------------------------------------------------------|
B|-0-0----0-0----0-0----0-0----0-0----0-0----0-0----0-0---------------------|
   s s p  s s p  s s p  s s p  s s p  s s p  s s p  s s p
 After that do the below.
G|--------------------------------------------------------------------------|
D|--------------------------------------------------------------------------|
A|--------------------------------------------------------------------------|
E|--------------------------------------------------------------------------|
B|-2-3-2--3-2-0-2-3-2-0-2-3-2---3-2-0-2-3-2-0-2-3-2---3-2-0-2-3-2-0-2-3-2---|


G|-------6----------------------------------------------------------------------|
D|-------5----------------------------------------------------------------------|
A|------------------------------------------------------------------------------|
E|------------------------------------------------------------------------------|
B|-0\-0-0--2-3-2--3-2-0-2-3-2-0-2-3-2--3-2-0-2-3-2-0-2-3-2--3-2-0-2-3-2-0-2-3-2-|
   s  s sp

G|-------6----------------------------------------------------------------------|
D|-------5----------------------------------------------------------------------|
A|------------------------------------------------------------------------------|
E|------------------------------------------------------------------------------|
B|-0\-0-0--2-3-2--3-2-0-2-3-2-0-2-3-2--3-2-0-2-3-2-0-2-3-2--3-2-0-2-3-2-0-2-3-2-|
   s  s sp

G|-------6---6-----6---------6--------6-----9-9-9-9-9-^-9-9-6\--------------|
D|-------5---6-----6---------6--------6-----9-9-9-9-------------------------|
A|--------------4-4--45444444--4445444--454---------------------------------|
E|--------------------------------------------------------------------------|
B|-0\-0-0---0---------------------------------------------------------------|
   s  s s p s p s sp ssssssssp sssssssp sss * * * * p p p p p


G|-------6---6-----6---------6--------6-----9-9-9-9-9-^-9-9-6\--------------|
D|-------5---6-----6---------6--------6-----9-9-9-9-------------------------|
A|--------------4-4--45444444--4445444--454---------------------------------|
E|--------------------------------------------------------------------------|
B|-0\-0-0---0---------------------------------------------------------------|
   s  s s p s p s sp ssssssssp sssssssp sss * * * * p p p p p

G|--------------------------------------------------------------------------|
D|--------------------------------------------------------------------------|
A|--------------------------------------------------------------------------|
E|--------------------------------------------------------------------------|
B|-2-3-2--3-2-0-2-3-2-0-2-3-2---3-2-0-2-3-2-0-2-3-2---3-2-0-2-3-2-0-2-3-2---|


G|-------6----------------------------------------------------------------------|
D|-------5----------------------------------------------------------------------|
A|------------------------------------------------------------------------------|
E|------------------------------------------------------------------------------|
B|-0\-0-0--2-3-2--3-2-0-2-3-2-0-2-3-2--3-2-0-2-3-2-0-2-3-2--3-2-0-2-3-2-0-2-3-2-|
   s  s sp

G|-------6---6-----6---------6--------6-----9-9-9-9-9-9\11-9-9-6\13--------------|
D|-------5---6-----6---------6--------6-----9-9-9-9-------+-+-+----------------|
A|--------------4-4--45444444--4445444--454---------------------------------|
E|--------------------------------------------------------------------------|
B|-0\-0-0---0---------------------------------------------------------------|
   s  s s p s p s sp ssssssssp sssssssp sss * * * * p p p p p

[ Tab from: http://www.guitartabs.cc/tabs/m/mudvayne/dig_btab_ver_6.html ]
G|-------6---6-----6---------6--------6-----9-9-9-9-9-^-9-9-6\--------------|
D|-------5---6-----6---------6--------6-----9-9-9-9-------------------------|
A|--------------4-4--45444444--4445444--454---------------------------------|
E|--------------------------------------------------------------------------|
B|-0\-0-0---0---------------------------------------------------------------|
   s  s s p s p s sp ssssssssp sssssssp sss * * * * p p p p p
             

G|--------------------------------------------------------------------------|
D|--------------------------------------------------------------------------|
A|--------------------------------------------------------------------------|
E|--------------------------------------------------------------------------|
B|-2-3-2--3-2-0-2-3-2-0-2-3-2---3-2-0-2-3-2-0-2-3-2---3-2-0-2-3-2-0-2-3-2---|


G|-------6----------------------------------------------------------------------|
D|-------5----------------------------------------------------------------------|
A|------------------------------------------------------------------------------|
E|------------------------------------------------------------------------------|
B|-0\-0-0--2-3-2--3-2-0-2-3-2-0-2-3-2--3-2-0-2-3-2-0-2-3-2--3-2-0-2-3-2-0-2-3-2-|
   s  s sp

G|-4-5-6-99-8-7-------------------------------------------------------------|
D|-4-5-6-99-8-7-------------------------------------------------------------|
A|--------------------------------------------------------------------------|
E|--------------------------------------------------------------------------|
B|--------------------------------------------------------------------------|
   * * * * * * *

G|----------------------------------*-*-*-****-----*-*-*-****-----*-*-*-****|
D|----------------------------------*-*-*-****-----*-*-*-****-----*-*-*-****|
A|----------------------------------*-*-*-****-----*-*-*-****-----*-*-*-****|
E|--------------------------------------------------------------------------|
B|-2-3-2--2-3-2--2-3-2--2-3-2--2-3-2----------2-3-2----------2-3-2----------|


G|------*-*-*-****--------0-0-0-0-0\-0\-0\-11/---------------------|
D|------*-*-*-****--------0-0-0-0-0\-0\-0\-11/---------------------|
A|------*-*-*-****-------------------------------------------------|
E|-----------------------------------------------------------------|
B|-2-3-2-----------------------------------------------------------|


G|--------------------------------------------------------------------------|
D|--------------------------------------------------------------------------|
A|--------------------------------------------------------------------------|
E|--------------------------------------------------------------------------|
B|-5-5-5-5-5-5-5-5-0-0-5-5-5-5-5-5-5-5-0-0-5-5-5-5-5-5-5-5-0-0-5-5----------|

G|------------------4-5-6-99-8----------------------------------------------|
D|------------------4-5-6-99-8----------------------------------------------|
A|--------------------------------------------------------------------------|
E|--------------------------------------------------------------------------|
B|-5-5-5-5-5-5-5-5----------------------------------------------------------|
                    * * * ** *
G|--------------------------------------------------------------------------|
D|--------------------------------------------------------------------------|
A|--------------------------------------------------------------------------|
E|--------------------------------------------------------------------------|
B|-2-3-2--3-2-0-2-3-2-0-2-3-2---3-2-0-2-3-2-0-2-3-2---3-2-0-2-3-2-0-2-3-2---|


G|-------6----------------------------------------------------------------------|
D|-------5----------------------------------------------------------------------|
A|------------------------------------------------------------------------------|
E|------------------------------------------------------------------------------|
B|-0\-0-0--2-3-2--3-2-0-2-3-2-0-2-3-2--3-2-0-2-3-2-0-2-3-2--3-2-0-2-3-2-0-2-3-2-|
   s  s sp

G|-------6----------------------------------------------------------------------|
D|-------5----------------------------------------------------------------------|
A|------------------------------------------------------------------------------|
E|------------------------------------------------------------------------------|
B|-0\-0-0--2-3-2--3-2-0-2-3-2-0-2-3-2--2-3-2--3-2-0-2-3-2-0-2-3-2--3-2-0-2-3-2-0|
   s  s sp
G|-----------------------------------6--------------------------------------|
D|-----------------------------------5--------------------------------------|
A|--------------------------------------------------------------------------|
E|--------------------------------------------------------------------------|
B|2-3-2--3-2-0-2-3-2-0-2-3-2--0\-0-0----------------------------------------|
                              s  s sp
Well, that's it. I tabbed the whole song in an hour and A-half!
Email me if I missed anything!
Mudfandkbass@VerizonMail.com

(Thanx 4 telling me about the fill, I listened and fixed it as good as I good as I could guess, Jeff!)
Comments