Mudvayne - Dig Chords & Tabs

 

Dig Chords & Tabs

Mudvayne Chords & Tabs

Version: 4 Type: Bass Tab 0 ratings
1 star 2 stars 3 stars 4 stars 5 stars
comments

Dig Bass Tab

   
Tabbed by: lord_of_the_bins@hotmail.com

NOTE: I realize that every pop ryknow plays is a chord but i only put the most 
dominant sounding note
beginning
Intro Riff
G------P6------P6      do this several times in the 
D----------------     beggining
E----------------
D--0-0-----0-0---

Chorus
G----------------------------------
D----------------------------------
E----------------------------------
D-0--0-1-2-1-0-1-0----0-1-2-1-0-1-0
after playing this ^^^ 3 times
do this 
G------P6------
D--------------
E-3/12---------
D--------------

verses
G-----P6----------------P6----  After playing this 3
D---------------------------  times slide up to 12
E---------------------------  on E and hit repeatedly
D-0-0-----0-1-2-1-0-1-0--------  only hit the double 0’s right after the chorus
[ Tab from: http://www.guitartabs.cc/tabs/m/mudvayne/dig_btab_ver_4.html ]
“YOU AINT F*CKIN CHANGIN ME”
G--------------
D--------------
E--------------
D—3-4-5-6-5-4-3

DIG!! Now mutha***a DIG!!
G-------x-x-x-x------   this part is a little difficult
D-------x-x-x-x------   but if you watch the video, Ryknow
E-------x-x-x-x------   uses his fingernails and scratches
D—0-x---x-x-x-x------   all the strings to make the sound

This is the part b4 he yells “LET ME HELP YOU……”
G-----0P-------0P
D----------------
E----------------
D-0-0-----0-0----

Now this is where he yells is
G---------------------------  after playing this 2 times
D---------------------------  slide up to E12 and bend then
E---------------------------  start playing this again
D—3-2-—3-2-—3-—3-2-3-0-2-3-2 
		
And the rest you have already played so it should come easy to you
Have fun
Comments