Mudvayne - Dig Chords & Tabs

 

Dig Chords & Tabs

Mudvayne Chords & Tabs

Version: 3 Type: Bass Tab 0 ratings
1 star 2 stars 3 stars 4 stars 5 stars
comments

Dig Bass Tab

   
 song:  dig
artist:  mudvayne
    cd:  l.d. 50
tabbed:  ryan mckee

Hey, this is a fairly easy song if you can play like
Ryan Martinie (ryknow) from mudvayne.  Alot of slap/pop
and ALOT of fast playing.  Listen to the CD for timing
and it also helps to have a Warwick Thumb lying around
to replicate the awesome sound of the bass in this song.
All the other tabs ive seen are absolutely horrid, and this
is your best bet at a 100% right tab.  Ill have other MV 
stuff up later.
-=ryan


 I REALIZED ITS IN A DIFF TUNING, IM 
 STILL NOT SURE THIS IS EVEN THE RIGHT
 ONE!  PPL TELL ME HE GOES AS LOW AS
 F#-B-F#-B-E...SO I DUNNO, HERES THE UPDATE.

Key:
    s - slap
    p - pop
   st - strum
    x - dead note(s)
  (R) - rest
(Rx2) - rest two beats
    \ - slide down   
    / - slide up     
    h - hammer-on
    p - pull-off
    b - bend half step
    B - bend full step


--intro--

   [0:00]-[0:07]         [0:08]-[0:14]
               x8			       x4
 F-||-------8--||        ||-------8/-------8\--||
 C-||-------7--||        ||-------7/-------7\--||
 G-||----------||   to   ||--------------------||
 B-||--0-0-----||        ||--0-0------0-0------||
 G-||----------||        ||--------------------||
       s s  p		     s s  p   s s  p

--verse--

   [0:15]-[0:35]

 f-||----------------------------------------------------------------------||
 c-||----------------------------------------------------------------------||
 g-||----------------------------------------------------------------------||
 b-||--2h3-1--(R)--0-0-2h3-3-2-2-0-2h3p2--(R)--0-0-2h3-3-2-2-0-2h3p2--(R)--||
 g-||----------------------------------------------------------------------||

   (con't)	 		             x3
 f-||-----------------------------------8\---||
 c-||-----------------------------------7\---||
 g-||----------------------------------------|| 
 b-||--0-0-2h3-3-2-2-0-2h3p2-------0-0-------||
 g-||--------------------------2/------------||
		               s   s s  p

--chorus--

   [0:36]-[0:49]

 f-||-------8-------------------8-------------------8----------------x------||
 c-||-----------------------------------------------------------------------||
 g-||-----------------5h6-----------------5h6-----------------5h6/8----x-x--||
 b-||--0-0-----0-3p2-------0-0-----0-3p2-------0-0-----0-3p2----------------||
 g-||-----------------------------------------------------------------------||
       s s  p  s s    s    s s  p  s s    s    s s  p  s s    s      p s s 
   (con't)			x2
 f-||--x-------x-------x-----8--||
 c-||---------------------------||
 g-||-----x-x-----x-x-----x-----||
 b-||---------------------------||
 g-||---------------------------||
       p  s s  p  s s  p  s  p

--verse2--

   [0:50]-[1:03]

 f-||----------------------------------------------------------------------||
 c-||----------------------------------------------------------------------||
 g-||----------------------------------------------------------------------||
 b-||--2h3-1--(R)--0-0-2h3-3-2-2-0-2h3p2--(R)--0-0-2h3-3-2-2-0-2h3p2--(R)--||
 g-||----------------------------------------------------------------------||

   (con't)	 		             x3
 f-||-----------------------------------8\---||
 c-||-----------------------------------7\---||
 g-||----------------------------------------|| 
 b-||--0-0-2h3-3-2-2-0-2h3p2-------0-0-------||
 g-||--------------------------2/------------||
		               s   s s  p


--chorus--

   [1:04]-[1:18]

 f-||-------8-------------------8-------------------8----------------x------||
 c-||-----------------------------------------------------------------------||
 g-||-----------------5h6-----------------5h6-----------------5h6/8----x-x--||
 b-||--0-0-----0-3p2-------0-0-----0-3p2-------0-0-----0-3p2----------------||
 g-||-----------------------------------------------------------------------||
       s s  p  s s    s    s s  p  s s    s    s s  p  s s    s      p s s 
   (con't)			x2
 f-||--x-------x-------x-----8--||
 c-||---------------------------||
 g-||-----x-x-----x-x-----x-----||
 b-||---------------------------||
 g-||---------------------------||
       p  s s  p  s s  p  s  p


--verse3--

   [1:19]-[1:30]
[ Tab from: http://www.guitartabs.cc/tabs/m/mudvayne/dig_btab_ver_3.html ]
 f-||----------------------------------------------------------------------||
 c-||----------------------------------------------------------------------||
 g-||----------------------------------------------------------------------||
 b-||--2h3-1--(R)--0-0-2h3-3-2-2-0-2h3p2--(R)--0-0-2h3-3-2-2-0-2h3p2--(R)--||
 g-||----------------------------------------------------------------------||

   (con't)	 	     first time only   x3
 f-||------------------------||-----------8\---||
 c-||------------------------||-----------7\---||
 g-||------------------------||----------------|| 
 b-||--0-0-2h3-3-2-2-0-2h3p2-||------0-0-------||
 g-||------------------------||--2/------------||
		               s   s s  p

--bridge--

   [1:31]-[2:14]
       YOU    AINT   FUC   KIN   CHANG   IN'    ME!   x1
 f-||---6------7------8-----11------10------9------8--||
 c-||---6------7------8-----11------10------9------8--||
 g-||-------------------------------------------------||
 b-||-------------------------------------------------||
 g-||-------------------------------------------------||
        st     st     st    st     st     st     st
   (con't)
 f-||---------------------------------------------------------------------||
 c-||---------------------------------------------------------------------||
 g-||---------------------------------------------------x--x-xxxx---------||
 b-||--0h2p0--(Rx2)--0h2p0--(Rx2)--0h2p0--(Rx2)--0h2p0--x--x-xxxx--0h2p0--||
 g-||---------------------------------------------------x--x-xxxx---------||
       s             s             s             s      st-------  s
   (con't) 					        	                   
 f-||-------------------------------------------------------------------||
 c-||-------------------------------------------------------------------||
 g-||-x--x-xxxx---------x--x-xxxx---------x--x-xxxx---------------------||
 b-||-x--x-xxxx--0h2p0--x--x-xxxx--0h2p0--x--x-xxxx--0-0-4b-4b-4b-4b-4b-||
 g-||-x--x-xxxx---------x--x-xxxx---------x--x-xxxx---------------------||
      st-------  s      st-------  s      st-------
   (con't)       				       x1                   x4
 f-||------2------2------2------2-----2/-------2/------|--------------------||
 c-||------2------2------2------2-----2/--11\--2/--11\-|--------------------||
 g-||-------------------------------------11\------11\-|--------------------||
 b-||-0-0----0-0----0-0----0-0----0-0------------------|-0-0-4b-4b-4b-4b-4b-||
 g-||--------------------------------------------------|--------------------||
       s s  p s s  p s s  p s s  p s s p    p    p   p
   (con't)
 f-||---4------5------6-----9------8------7------6----||
 c-||---4------5------6-----9------8------7------6----||
 g-||-------------------------------------------------||
 b-||-------------------------------------------------||
 g-||-------------------------------------------------||
        st     st     st    st     st     st     st

--verse3--

   [2:15]-[2:29]

 
 f-||----------------------------------------------------------------------||
 c-||----------------------------------------------------------------------||
 g-||----------------------------------------------------------------------||
 b-||--2h3-1--(R)--0-0-2h3-3-2-2-0-2h3p2--(R)--0-0-2h3-3-2-2-0-2h3p2--(R)--||
 g-||----------------------------------------------------------------------||

   (con't)	 		             x2
 f-||-----------------------------------8\---||
 c-||-----------------------------------7\---||
 g-||----------------------------------------|| 
 b-||--0-0-2h3-3-2-2-0-2h3p2-------0-0-------||
 g-||--------------------------2/------------||
		               s   s s  p

--outro--

   [2:30]-[end]
                                             SUFFER!
 f-||--------------------------------------------------------------------------------||
 c-||--------------------------------------------------------------------------------||
 g-||--------------------------------------------------------------------------------||
 b-||--2h3-1--(R)--0-0-2h3-3-2-2-0-2h3p2--(R)--0-0--(R)--0-0-2h3-3-2-2-0-2h3p2--(R)--||
 g-||--------------------------------------------------------------------------------||

   (con't)	 		                                       
 f-||-------------------------------------------------------------8\---||
 c-||-------------------------------------------------------------7\---||
 g-||------------------------------------------------------------------|| 
 b-||--0-0-2h3-3-2-2-0-2h3p2--(R)--0-0-2h3-3-2-2-0-2h3p2-----0-0-------||
 g-||-----------------------------------------------------2/-----------||
		                                          s   s s  p

Don't even tell me one thing is wrong here, ive seen Ryknow play live twice
and on top of that i have the Dig DVD and you can isolate just his shots and
watch every move he makes.   any questions or comments email me at: 
sublimebass@aol.com



Put in this site by :ME Rani
Comments