Mudvayne - Death Blooms Chords & Tabs

 

Death Blooms Chords & Tabs

Mudvayne Chords & Tabs

Version: 5 Type: Tab 1 rating
1 star 2 stars 3 stars 4 stars 5 stars
comments

Death Blooms Tab

   
Mudvayne - Death Blooms

Tuning : Drop B (B,F#,B,E.G#,C#)

 INTRO
C#|--------------------------------------------|
G#|-------------------15-------15-------15-----|
E |----------------------14-12----14-12----14--|
B |--3-3-3-0-2-2-2-2---------------------------|
F#|--3-3-3-0-2-2-2-2---------------------------|
B |--3-3-3-0-2-2-2-2---------------------------|
PM   * * * * * * * *


 RIFF 2 - 0:11
C#|-----------------------------------|
G#|-----------------------------------|
E |-----------------------------------|     
B |--0-7-8-0-7-8-0-7-8-0-5-0-2-3-2-0--|
F#|--0-7-8-0-7-8-0-7-8-0-5-0-2-3-2-0--|
B |--0-7-8-0-7-8-0-7-8-0-5-0-2-3-2-0--|


 FILL - 0:22
C#|-------------------|
G#|-------------------|
E |-------------------|     
B |--3-2-0-2-5-0-2-3--|
F#|--3-2-0-2-5-0-2-3--|
B |--3-2-0-2-5-0-2-3--|


 VERSE - 0:24
C#|----------------|
G#|----------------|
E |----------------|     
B |----------------|
F#|--5------5------|
B |--5-2-3--5-2-3--|


  0:34
C#|-------------------|
G#|-------------------|
E |-------------------|     
B |--3-2-0-2-5-0-2-3--|
F#|--3-2-0-2-5-0-2-3--|
B |--3-2-0-2-5-0-2-3--|

 
 0:36
C#|-------------------|
G#|-------------------|
E |-------------------|     
B |--2-2-2-2-3-2-2-2--|
F#|--2-2-2-2-3-2-2-2--|
B |--2-2-2-2-3-2-2-2--|
[ Tab from: http://www.guitartabs.cc/tabs/m/mudvayne/death_blooms_tab_ver_5.html ]
 
 1:14
C#|---------------------------------------------|
G#|---------------------------------------------|
E |--7-77--9-99---------------------------------|     
B |--7-77--9-99--0-7-8-0-7-8-0-7-8-0-7-8-2-3-2--|
F#|--5-55--7-77--0-7-8-0-7-8-0-7-8-0-7-8-2-3-2--|
B |--------------0-7-8-0-7-8-0-7-8-0-7-8-2-3-2--|


 FAST RIFF - 1:38
C#|---------------------------------|
G#|---------------------------------|
E |---------------------------------|     
B |----------------------------7-8--|
F#|----------------------------7-8--|
B |--8-0-0-0-0-0-0-0-8-0-0-0-0-7-8--|
PM     * * * * * * *   * * * *I


 FAST RIFF 2 - 1:47
C#|--------------------------------------------|
G#|--------------------------------------------|
E |--------------------------------------------|     
B |--3-2-2-2-2-2-2-3-2-2-2-2-3--2-2-2-2-3-3-3--|
F#|--3-2-2-2-2-2-2-3-2-2-2-2-3--2-2-2-2-3-3-3--|
B |--3-2-2-2-2-2-2-3-2-2-2-2-3--2-2-2-2-3-3-3--|
PM     * * * * * *   * * * *    * * * *


      2:14
C#|---------------------------------|
G#|---------------------------------|
E |---------------------------------|     
B |------------------------7--5--4--|
F#|------------------------5--3--2--|
B |--2-0-0-3-0-0-2-0-0-0------------|


     2:36
C#|--------------------------------|
G#|--------------------------------|
E |--------------------------------|     
B |------------------------8-8-10--|
F#|------------------------8-8-10--|
B |--2-0-0-3-0-0-2-0-0-0---8-8-10--|

Questions?Comments?..... sad_air_732@hotmail.com
Comments