Mudvayne - Death Blooms Chords & Tabs

 

Death Blooms Chords & Tabs

Mudvayne Chords & Tabs

Version: 4 Type: Tab 1 rating
1 star 2 stars 3 stars 4 stars 5 stars
comments

Death Blooms Tab

   
Artist: Mudvayne (C.Gray, G.Tribbett, R.Martinie, & M.McDonough)
Album : L.D. 50
Song  : Death Blooms

okay, I haven't found the correct tabs to this song on-line yet.
This is how I play it and I think it sounds best...I admit, I
BS through the interlude and outro, but I pretty positive that 
the rest of the song is correct.

C#:----------------------------------------------|
G#:----------------------------------------------|
E :-------------------------------------|
B :-------------------------------------|
F#:-3-2-2--3-2-2--2-0·---------------------|
B :-3-2-2--3-2-2--2-0·---------------------------|
  PM.....  ...... ..

C#:----------------------------------|------------------|
G#:----------------------------------|------------------|
E :----------------------------------|------------------|
B :----------------------------------|------------------|
F#:-0-7-8-0-7-8-0-7-8-0-5-0-3-5-3-2--|--3/2-0-3/5-0-2/3-|
B :-0-7-8-0-7-8-0-7-8-0-5-0-3-5-3-2--|--3/2-0-3/5-0-2/3-|
 PM                                         ..    ..

C#:---------------|-----------------|---------------------------------|
G#:---------------|-----------------|---------------------------------|
E :---------------|-----------------|---------------------------------|
B :---------------|-----------------|---------------------------------|
F#:-3-----3-------|-3/2-0-3/5-0-2/3-|-3-2-2-3-2-2-3-2-2-3-2-2-3-2-0-2-|
B :---2-2---2-2-2-|-3/2-0-3/5-0-2/3-|-3-2-2-3-2-2-3-2-2-3-2-2-3-2-0-2-|
 PM                     ..    ..

C#:---------------------------------|-------------------|
G#:---------------------------------|-------------------|
E :---------------------------------|-7-7-7--5-5-5------|
B :---------------------------------|-7-7-7--5-5-5--8-8-|
F#:-0-7-8-0-7-8-0-7-8-0-5-0-3-5-3-2-|-5-5-5--3-3-3--8-8-|
B :-0-7-8-0-7-8-0-7-8-0-5-0-3-5-3-2-|---------------8-8-|

INTERLUDE ???? (please e-mail if you have the tabs)
[ Tab from: http://www.guitartabs.cc/tabs/m/mudvayne/death_blooms_tab_ver_4.html ]
This is the part where he says "I will crucify my own being..."
C#:-------------------------------|
G#:-------------------------------|
E :-------------------------------|
B :-------------------------------|
F#:-3-2-0-3-2-0-3-2-0-3-2-0-3-2-0-|
B :-3-2-0-3-2-0-3-2-0-3-2-0-3-2-0-|

C#:-------|------------------------|
G#:-3-1-3-|------------------------|
E :-2-0-0-|------------------------|
B :-0-2-0-|------------------------|
F#:---3-2-|------------------------|
B :-------|-3p0-0-3p0-0-3p0-0-3p0-0|

C#:--------------------------------|
G#:--------------------------------|
E :--------------------------------|
B :--------------------------------|
F#:------------------------------3-|
B :-3p0-0-3p0-0-3p0-0-3p0-0--0-0---|
 PM                          ....

C#:-----------------------------------------------------------------|
G#:-----------------------------------------------------------------|
E :-----------------------------------------------------------------|
B :-----------------------------------------------------------------|
F#:------------------------------8-------------------------------10-|
B :-3p0-0-3p0-0-3p0-0-3p0-0--0-0----3p0-0-3p0-0-3p0-0-3p0-0--0-0----|
 PM                          ....                            ....

C#:-----------------------------------------------------|
G#:-----------------------------------------------------|
E :-----------------------------------------------------|
B :---------------------------------------------------0-|
F#:------------------------------12-------------------0-|
B :-3p0-0-3p0-0-3p0-0-3p0-0--0-0-----3p0-0-3p0-0-3p0--0-|
 PM                          ....

OUTRO ???? (please e-mail if you have the tabs)

I know the song ends with this chord

C#:---|
G#:---|
E :-5-|
B :-4-|
F#:-3-|
B :---|

That's it, hoped it helped.  Mudvayne kicks ass!!
E-mail me with tabs, questions, or comments! Thanks!
rj6586@hotmail.com

-metalrj86
Comments