Mudvayne - Death Blooms Chords & Tabs

 

Death Blooms Chords & Tabs

Mudvayne Chords & Tabs

Version: 3 Type: Tab 1 rating
1 star 2 stars 3 stars 4 stars 5 stars
comments

Death Blooms Tab

#-----------------------------------------------------------------------------#
#-- File created with Instab - http://www.pconline.com/~smcarey/instab.html --#
#-----------------------------------------------------------------------------#

Author/Artist: Mudvanye
Title: Death Blooms
Album: L.D 50
Transcribed by: www.pharmaecopiaonline.tk
Email: www.pharmaecopiaonline.tk

www.pharmaecopiaonline.tk

---------------------------------------|--------------------------------|-----
---------------------------------------|--------------------------------|-----
---------------------7^-----7^-----7^--|--------------------------------|-----
-----------------------7^-----7^-----7^|--------------------------------|-----
-------------------------7^-----7^-----|-0-7-8-0-7-8-0-7-8-0-5-0-3-5-2-0|-----
-3-2-2--3-2-2--3-2-2-------------------|-0-7-8-0-7-8-0-7-8-0-5-0-3-5-2-0|-----
                                                                              

----------------------------|-----------|-----------------|-------------------
----------------------------|-----------|-----------------|-------------------
----------------------------|-----------|-----------------|-------------------
----------------------------|-----------|-----------------|-------------------
-3-2-0-3-5-0-2-3-3-----3----|3-----3----|-3-2-0-3-5-0-2-3-|-------------------
-3-2-0-3-5-0-2-3---2-2---2-2|--2-2---2-2|-3-2-0-3-5-0-2-3-|-------------------
                                                                              

--------------------------------|---------------------------------------------
--------------------------------|-----3---------------------------------------
--------------------------------|---2----0-0----------------------------------
--------------------------------|-0------2-2----------------------------------
-3-2-2-3-2-2-3-2-2-3-2-2-3-2-0-2|-0------3-3----8-8-8-0-7-8-0-7-8-0-7-8-0-5---
-3-2-2-3-2-2-3-2-2-3-2-2-3-2-0-2|-0------------/8-8-8-0-7-8-0-7-8-0-7-8-0-5---
                                                                              
[ Tab from: http://www.guitartabs.cc/tabs/m/mudvayne/death_blooms_tab_ver_3.html ]
----------|--|----------------------------|-----------------------------------
----------|--|----------------------------|-----------------------------------
----------|-2|----------------------------|-----------------------------------
----------|-0|----------------------------|-----------------------------------
-0-3-5-2-0|-0|-1-----------1--------------|-3-2-0-2-0-2-3--2-0-2-0-3--2-------
-0-3-5-2-0|-0|---2-0-3-2-0---2-0-3-2-0-0-0|-3-2-0-2-0-2-3--2-0-2-0-3--2-0-2---
                                                                              

----------|----------------------------|-------3-------------------|----------
----------|----------------------------|--3--1-3-------------------|----------
----------|----------------------------|--2--0-0-------------------|----------
-----3-3-3|-3-----------3--------------|--0--2-0-------------------|----------
-----3-3-3|-1-3-0-3-2-0-1-3-0-3-2-0-0-0|-----3-2-------------------|----------
-0-0-3-3-3|---3-0-3-2-0---3-0-3-2-0-0-0|----------3/0-0-3/0-0-3/0-0|----------
                                                                              

---------------------------|--------------------------------------------------
---------------------------|--------------------------------------------------
--------------------------5|--------------------------------------------------
---------------------------|-------------------------------4------------------
-3-0-0-3-0-0-3-0-0-0--0-0-3|-------------------------------3--3-0-0-3-5-0-----
-3-0-0-3-0-0-3-0-0-0--0-0--|-0-0--0---0---0--0-3-2---0--0-----3-0-0-3-5-0-----
                                                                              

-------------------------------------------------|--|-------------------------
-------------------------------------------------|--|-------------------------
-------------------------------------------------|--|-------------------------
-------------------------------4-----------------|-4|-------------------------
-0-0---------------------------3--3-0-2-3-5-0-2-3|-3|-------------------------
-0-0--0--0-3\2-3/5--0-0--0--0-----3-0-2-3-5-0-2-3|--|-------------------------
                                                                              

Comments