Mudvayne - Death Blooms Chords & Tabs

 

Death Blooms Chords & Tabs

Mudvayne Chords & Tabs

Version: 2 Type: Tab 1 rating
1 star 2 stars 3 stars 4 stars 5 stars
comments

Death Blooms Tab

   
Song: "Death Blooms"
Artist: Mudvayne
Album: L.D. 50
Transcribed By: ATS

Tuning: Drop D, Down 1 1/2 Steps (B,F#,B,E,G#,C#)

INTRO:
|------------------------------------------|
|------------------------------------------|
|---------------------------------|
|-3-2-2-3-2-2-2-2-----------------|
|-3-2-2-3-2-2-2-2--------------------|
|-3-2-2-3-2-2-2-2--------------------------|
PM. . . . . . . .

MAIN RIFF:
|---------------------------------|
|---------------------------------|
|---------------------------------|
|-0-7-8-0-7-8-0-7-8-0-5-0-3-5-3-0-|
|-0-7-8-0-7-8-0-7-8-0-5-0-3-5-3-0-|
|-0-7-8-0-7-8-0-7-8-0-5-0-3-5-3-0-|

FILL:
|-----------------|
|-----------------|
|-----------------|
|-3-2-2-3-5-0-2-2-|
|-3-2-2-3-5-0-2-2-|
|-3-2-2-3-5-0-2-2-|

VERSE:
|-------------|
|-------------|
|-------------|
|-------------|
|-3-----3-----|
|---2-2---2-2-|

BRIDGE:
|---------------------------------|
|---------------------------------|
|---------------------------------|
|-3-2-2-3-2-2-3-2-2-3-2-2-3-2-0-0-|
|-3-2-2-3-2-2-3-2-2-3-2-2-3-2-0-0-|
|-3-2-2-3-2-2-3-2-2-3-2-2-3-2-0-0-|

CHORUS:
|------------------------------------------|
|------------------------------------------|
|-14--12-----------------------------------|
|-12--10---0-7-8-0-7-8-0-7-8-0-5-0-3-5-3-0-|
|-12--10---0-7-8-0-7-8-0-7-8-0-5-0-3-5-3-0-|
|-12--10---0-7-8-0-7-8-0-7-8-0-5-0-3-5-3-0-|

|--------------------------------------------|
|--------------------------------------------|
|-14--12--10---------------------------------|
|-12--10---8-0-7-8-0-7-8-0-7-8-0-5-0-3-5-3-0-|
|-12--10---8-0-7-8-0-7-8-0-7-8-0-5-0-3-5-3-0-|
|-12--10---8-0-7-8-0-7-8-0-7-8-0-5-0-3-5-3-0-|

FILL 2:
|---------------|
|---------------|
|-14--12--10----|
|-12--10---8--0-|
|-12--10---8--0-|
|-12--10---8--0-|
[ Tab from: http://www.guitartabs.cc/tabs/m/mudvayne/death_blooms_tab_ver_2.html ]
INTERLUDE: (palm mute)
|----------------------------|
|----------------------------|
|----------------------------|
|----------------------------|
|-8-0-2-3-2-0-8-0-2-3-2-0--0-|
|-8-0-2-3-2-0-8-0-2-3-2-0--0-|

INTERLUDE 2:
|------------------------------------------|
|------------------------------------------|
|------------------------------------------|
|------------------------------------------|
|-3--2-0-2-0-2-3--2-0-2-0-3--2-0-2-0-0-3-3-|
|-3--2-0-2-0-2-3--2-0-2-0-3--2-0-2-0-0-3-3-|

INTERLUDE 3:
|-------------------------------|
|-------------------------------|
|-14-12-11----------------------|
|-12-10--9----------------------|
|-12-10--9--2p0-0-3p0-0-2p0-0-0-|
|-12-10--9--2p0-0-3p0-0-2p0-0-0-|

INTERLUDE 4:
|------------------------------------------|
|------------------------------------------|
|------------------------------------------|
|------------------------------------------|
|-2p0-0-3p0-0-2p0-0-0--2p0-0-3p0-0-2p0-0-0-|
|-2p0-0-3p0-0-2p0-0-0--2p0-0-3p0-0-2p0-0-0-|

INTERLUDE 5:
|-----------------------------------------------------|
|-----------------------------------------------------|
|-----------------------------------------------------|
|-----------------------------------------------------|
|-2p0-0-3p0-0-2p0-0-0-XX-10-2p0-0-3p0-0-2p0-0-0-XX-10-|
|-2p0-0-3p0-0-2p0-0-0-XX-10-2p0-0-3p0-0-2p0-0-0-XX-10-|

OUTRO: (* - tenth fret)
|--------------------------------------------------------------|
|--------------------------------------------------------------|
|--------------------------------------------------------------|
|--------------------------------------------------------------|
|-00-0-0-0-0-32-0-0-*10*-32235020-0-0-3235-00-0-0*10*-32235022-|
|-00-0-0-0-0-32-0-0-*10*-32235020-0-0-3235-00-0-0*10*-32235022-|
PM           ..                                  .

|-----------------------------------------------------|
|-----------------------------------------------------|
|-----------------------------------------------------|
|-----------------------------------------------------|
|-00-0-0-0-0-32-0-0-*10*-32235020-0-0-3235-00-0-0*10*-|
|-00-0-0-0-0-32-0-0-*10*-32235020-0-0-3235-00-0-0*10*-|
PM           ..                                 .
Comments