Mudvayne - Death Blooms Chords & Tabs

 

Death Blooms Chords & Tabs

Mudvayne Chords & Tabs

Version: 2 Type: Bass Tab 0 ratings
1 star 2 stars 3 stars 4 stars 5 stars
comments

Death Blooms Bass Tab

Tabbed by - Dave "DeMoN" Theriaque
Artist - Mudvayne
Song - Death Blooms
Album - L.D. 50

I know Ryknow uses a 5-string, but this sounds really good to me.

T - Slapped
S - Popped
() - Muted Pop [don't let the note ring out]

INTRO
 x4
F|------------------------|-
C|------------------------|-
G|------------------------|-
C|-2-2-2-3-2-2-2-2- rest -|-

MAIN RIFF 
 x1
F|---------------------------------|-
C|---------------------------------|-
G|---------------------------------|-
C|-0-8-9-0-8-9-0-8-9-0-8-0-2-3-2-0-|-

VERSE 
 x1                x4                      x1
F|-----------------|-----------------------|------------------|-
C|-----------------|-----------------------|------------------|-
G|-----------------|-----------------------|------------------|-
C|-3-2-0-2-5-3-2-2-|2-2-2-3-2-2-2-2- rest -|--3-2-0-2-5-3-2-2-|-

CHORUS
 x4
F|---------------------------------|-
C|---------------------------------|-
G|---------------------------------|-
C|-5-2-2-3-2-2-2-2-3-3-3-3-2-2-2-3-|-

BRIDGE
 x1
F|---------------------------------|--------------------|-
C|---------------------------------|----------------7-9-|-
G|---------------------------------|-/7-9---7-7-9-7-----|-
C|-0-8-9-0-8-9-0-8-9-0-8-0-2-3-2-0-|--------------------|-

 x1
F|---------------------------------|--------------7/9-----|-
C|---------------------------------|------7-7-9-7---------|-
G|---------------------------------|-/7-9-----------------|-
C|-0-8-9-0-8-9-0-8-9-0-8-0-2-3-2-0-|----------------------|-

 x1
F|---------------------------------|----9-------7---|-
C|---------------------------------|-/7---9---7---7-|-
G|---------------------------------|----------------|-
C|-0-8-9-0-8-9-0-8-9-0-8-0-2-3-2-0-|----------------|-

 x1
F|---------------------------------|---9-----9-----7-----7---|-
C|---------------------------------|-----9-----7-----7-----7-|-
G|---------------------------------|-7-----7-----5-----5-----|-
C|-0-8-9-0-8-9-0-8-9-0-8-0-2-3-2-0-|-------------------------|-
[ Tab from: http://www.guitartabs.cc/tabs/m/mudvayne/death_blooms_btab_ver_2.html ]
BREAKDOWN
 x6                 x3
F|---7---7---7--9---|------------------------------------------------------|-
C|------------------|-----------------------------------------/14-14-14-14-|-
G|------------------|------------------------------------------------------|-
C|-x--xx---x--x-----|-8-7-7-7-7-7-8---7-7-7-7-8---7-7-7-7-7-7--------------|-
 
 x1
F|-------------------------------------------------------------------------|-
C|-------------------------------------------------------------------------|-
G|-------------------------------------------------------------------------|-
C|-2-3-2-2-2-3-2-3---2-2-3-2-2-2-3-2-3-2-3-2-3---2-3-2-2-2-2-3-2-3-2-3-2-3-|-

 x3                x4
F|-----------------|------------------------------------------|-
C|-----------------|-7---5---4--------------------------------|-
G|-----------------|------------------------------------------|-
C|-3-3-2-2-2-2-2-2-|------------------2h3-3-2h3-3-2h3-2-2-----|-

 x4                      x8
F|-----------------------|------------------------------4--|-
C|-----------------------|---------------------------------|-
G|-----------------------|---------------------------------|-
C|-3p2-2-3p2-2-3p2-2-3p2-|-3p2-2-3p2-2-3p2-2-2-----2-2-----|-
 
x1
F|-----------------------------9---------------------------------11-----|-
C|----------------------------------------------------------------------|-
G|----------------------------------------------------------------------|-
C|-3p2-2-3p2-2-3p2-2-2-----x-x-------3p2-2-3p2-2-3p2-2-2-----x-x--------|-
      
 x1
F|-----------------------------13-----------------------|-
C|------------------------------------------------------|-
G|------------------------------------------------------|-
C|-3p2-2-3p2-2-3p2-2-2-----x-x------3p2-2-3p2-2-3p2-----|-
                         

OUTRO
F|-----------------------------------------------------------|-
C|-----------------------------------------------------------|-
G|------------------2----------------------------------------|-
C|-0-0-0-0---00-0-0------3-2-0-2-5-3-2-2---0-0-0-0---3-2-0-2-|-

F|------------------------------------------------------------------|-
C|------------------------------------------------------------------|-
G|------2---------------------------------------2-------------------|-
C|-0-0-------3-2-0-2-5-3-2-2---0-0-0-0---00-0-0-----3-2-0-2-5-3-2-2-|-

F|--------------------------|-
C|--------------------------|-
G|------------------------2-|-
C|-0-0-0---3-2-0-2---00-0---|-

+----------------------------------------------------------------------+
INTRO - [0:00]
MAIN RIFF - [0:11]
VERSE - [0:25]
CHORUS - [0:35]
VERSE - [0:47]
CHORUS - [1:01]
BRIDGE - [1:12]
BREAKDOWN - [1:34]
CHORUS - [3:06] x2
BRIDGE - [3:28] x2
OUTRO - [4:12]

I don't care if this is wrong cuz at least i'm giving all of you something to work with.
Comments