Mudvayne - Cultivate Chords & Tabs

 

Cultivate Chords & Tabs

Mudvayne Chords & Tabs

Version: 2 Type: Bass Tab 0 ratings
1 star 2 stars 3 stars 4 stars 5 stars
comments

Cultivate Bass Tab

   
song: cultivate
artist: mudvayne
cd: the beginning of all things to end
tabbed by: Ian  

Since this isn't a traditional, fast-paced Mudvayne
song, it is fairly easy to play.

intro  [0:00]

G-||-------------------------||
D-||-------------------------||
A-||-2-2-3-3-5-2-2-3-3-5-5h6-||
E-||-------------------------||
B-||-------------------------||

verse  [0:45]

G-||---------------------||
D-||---------------------||
A-||---------------------||
E-||---------------------||
B-||-0-1-3-2-0-2-3-3-2-0-||

intro again  [1:07]
[ Tab from: http://www.guitartabs.cc/tabs/m/mudvayne/cultivate_btab_ver_2.html ]
bridge  [1:28]
                        x3                    x1
G-||---------------------|---------------------||
D-||---------------------|---------------------||
A-||---------------------|---------------------||
E-||---------------------|-0-0-9-7\6\5\4\3\2\1-||
B-||-0-0-9-7\6\5\4\3\2\1-|---------------------||

verse again  [1:39]

bridge 2  [2:07]

G-||-------------------||
D-||-------------------||
A-||-------------------||
E-||-------------------||
B-||-5-5-7-5-5-7-5h7-7-||

intro modified  [2:43]

G-||--------------------------------------------------|
D-||--------------------------------------------------|
A-||-2-2-3-3-5-2-2-3-3-5-5h6--2-2-3-3-5-2-2-3-3-5-5h6-|
E-||--------------------------------------------------|
B-||--------------------------------------------------|
(cont.)
G-||-----------------------------------------||
D-||-----------------------------------------||
A-||-----------------------------------------||
E-||-----------------------------------------||
B-||-0-0-9-7\6\5\4\3\2\1-0-0-9-7\6\5\4\3\2\1-||

verse again  [3:21-end]

If you find any errors, please let me know via email.
Comments