Mudvayne - Amor Amor Chords & Tabs

 

Amor Amor Chords & Tabs

Mudvayne Chords & Tabs

Version: 1 Type: Tab 0 ratings
1 star 2 stars 3 stars 4 stars 5 stars
comments

Amor Amor Tab

Intro:
Guitar 1
   1 & 2 & 3 & 4 &  1 & 2 & 3 & 4 &  1 & 2 & 3 & 4 &  1 & 2 & 3 & 4 &
e------------------|----------------|----------------|----------------|
B--1h3-------------|---------------1|-1h3---1/3------|-------------6p5|
G--2---------------|---2----/5------|--2-------------|----------------|
D--0---------------|-3--------------|--0-------------|-3--------------|
A------------------|----------------|----------------|----------------|
E------------------|----------------|----------------|----------------|

[ Tab from: http://www.guitartabs.cc/tabs/m/mudvayne/amor_amor_tab.html ]
Guitar 2 (all pm)
   1 & 2 & 3 & 4 &  1 & 2 & 3 & 4 &  1 & 2 & 3 & 4 &  1 & 2 & 3 & 4 &
e------------------|----------------|----------------|----------------|
B------------------|----------------|----------------|----------------|
G-----------------2|-----5-5--------|---------------2|---3-5-5--------|
D------------------|-3-5-3-3--------|----------------|-3-5-3-3--------|
A------------------|----------------|----------------|----------------|
E------------------|----------------|----------------|----------------|


Guitar 1
|-------------------------------------------------| 
|-------------------------------------------------|
|-------------------------------------------------|
|-1-15--38\0--------------------------------------|
|-1-15--38\0--------------------------------------|



  1 & 2 & 3 & 4  +  &  +  1 & 2 & 3 & 4 &   1 & 2 & 3 & 4  +  &  + 
e------------------------|----------------|------------------------|
B--10----------10-10-----|-8/10------5b---|--10----------10-10-----|
G-------------------10-10|----------5-----|-------------------10-10|
D------------------------|----------------|------------------------|
A------------------------|----------------|------------------------|
E------------------------|----------------|------------------------|
  1 & 2 & 3 & 4 & 1 2 3 4
e----------------|--------|
B-8/10----10/5b--|6-------|
G----------------|--------|
D----------------|--------|
A----------------|--------|
E----------------|--------|


this is all fuckers !!!! 


-- Bolivia --
Comments