Mudvayne - -1 Chords & Tabs

 

-1 Chords & Tabs

Mudvayne Chords & Tabs

Version: 2 Type: Tab 0 ratings
1 star 2 stars 3 stars 4 stars 5 stars
comments

-1 Tab

   
------------------------------------------------------------
			     "-1"- mudvayne
------------------------------------------------------------------------------------------------------------------------
By:shaun seifert OR SSei582897@aol.com 

I WANT COMMENTS ON THIS TAB TELL ME WHAT YOU THINK!!!!!

tuning - B,F#,B,E,G#,C  
(IN THE INTRO THOSE ARE NOT 1'S AND 0'S THOSE ARE 10'S)  

INTRO + VERSE 
(LISTEN TO SONG TO SEE HOW MANY TIMES YOU YOU REPEAT IT)
C|----------------------------------------------------------
G#|---------------------------------------------------------
E|----------------------------------------------------------
B| 0000000000000000--0--00000000000000000-------------------
F#|88888888888888/10-10-77777777777777700-------------------
B|----------------------------------------------------------

CHORUS (AT 0:50,1:51, 3:27 x8)
C|----------------------------------------------------------
G#|---------------------------------------------------------
E|----------------------------------------------------------
B|----------------------------------------------------------
F#|30-0430-3000-0-----------------------------------------
B|-30---30-3000-0-----------------------------------------
[ Tab from: http://www.guitartabs.cc/tabs/m/mudvayne/1_tab_ver_2.html ]
 (AT 2:11 (TELL ME NOW!!!!))
C|----------------------------------------------------------
G#|---------------------------------------------------------
E|----------------------------------------------------------
B|----------------------------------------------------------
F#|30-0430-3000-0-----------------------------------------
B|-30---30-3000-0-----------------------------------------
 
 PRE-BRIDGE (AT 2:21 x11)
C|----------------------------------------------------------
G#|---------------------------------------------------------
E|----------------------------------------------------------
B|----------------------------------------------------------
F#|2323532323235356-----------------------------------------
B|-2323532323235356-----------------------------------------

BRIDGE x7 
(THESE ARE ALL DOUBLE DIGIT NUMBERS NOT 1'S AND 2'S)
C|-------------12-------------------------------------------
G#|12---------------12------12^(1/2 STEP)12---------12------
E|--------------------------------------------14--------14--B|------15--14----------15-----------------------15---------
F#|---------------------------------------------------------
B|----------------------------------------------------------

C|----------------------------------------------------------
G#|12-------------------------------------------------------
E|----14--13------------------------------------------------
B|------------14
							
													
Comments