Mudmen - Any Given Day Chords & Tabs

 

Any Given Day Chords & Tabs

Mudmen Chords & Tabs

Version: 1 Type: Tab 0 ratings
1 star 2 stars 3 stars 4 stars 5 stars
comments

Any Given Day Tab

   
this is a narly little band, not sure where theyre from, but their cool cuz theyre
one of the only alternative baands out there with bagpipes :)

tuning-drop d-DADGBe

b=half note bend
^=full note bend
bb=bend and bend back (half note)
^^=bend and bend back (full note)

Intro                        Have this little flanged up thing in the back

1---------------------------  1--------------------------|
2---------------------------  2--------------------------|
3-7bb-----------------------  3-8^^p7-7bb----------------|
4------8^^------------------  4----------8^^-------------|
5---------------------------  5--------------------------|
6---------------------------  6--------------------------|

Basic Riff

1-------------------------------------|
2-------------------------------------|
3-------------------------------------|
4-8--55--3-3--11----------------------|
5-8--55--3-3--11----------------------|
6-8--55--3-3--11----------------------|

Pre Chorus

1-------------------------------------|
2-------------------------------------|
3-------------------5-----------------|
4-55555555-88888888-5--3-33-11--------|
5-55555555-88888888-3--3-33-11--------|
6-55555555-88888888----3-33-11--------|

Bridge
[ Tab from: http://www.guitartabs.cc/tabs/m/mudmen/any_given_day_tab.html ]
1-------------------------------------|
2-------------------------------------|
3-/5/3/5/7/5/3/5/3/2/3/5/3------------|  x2
4-------------------------------------|
5-------------------------------------|
6-------------------------------------|

then

1-------------------------------------|
2-------------------------------------|
3-33333333-55555555-8888888888888888--|
4-33333333-55555555-8888888888888888--|
5-11111111-33333333-6666666666666666--|
6-------------------------------------|

Solo

1-------------------------------------|
2-------------------------------------|
3-8^^-7-8^^-7-7bb-8^^-7-8^^ 7bb-------|
4-------------------------------------|
5-------------------------------------|
6-------------------------------------|

1-------------------------------------|
2-------------------------------------|
3-------------------------------------|
4-8-10-10^^-8-10-12bb-10-8------------|
5-------------------------------------|
6-------------------------------------|

1--------------------------------------------|
2--------------------------------------------|
3-10-10^-10^-10^-10^-10^---------------------| goes striat into chorus
4------------------------10^-10^-10^^-8-10---|
5--------------------------------------------|
6--------------------------------------------|

thanx for reading my tab. for questions, e-mail me at horny_devil183@hotmail.com
Comments