Mudhoney - No End In Sight Chords & Tabs

 

No End In Sight Chords & Tabs

Mudhoney Chords & Tabs

Version: 1 Type: Tab 0 ratings
1 star 2 stars 3 stars 4 stars 5 stars
comments

No End In Sight Tab

   
(4/4 Time) (Tuning [Low to High]: Eb Ab Db Gb Bb Eb)
Intro:
    Eb    D   Db     C B
-16----------------------------------------------------------
--*----------------------------------------------------------
----9-9-9-8-8-7-7--7-6-5-5--5-5-5-5-x-3-x-3------------------
----9-9-9-8-8-7-7--7-6-5-5--5-5-5-5-x-3-x-3------------------
----7-7-7-6-6-5-5--5-4-3-3--3-3-3-3-x-3-x-3------------------
-------------------------------------------------------------
(Guitars 1 and 2) (*=Feedback/Pick-Up Note From Guitar 2)
(Repeat Three Times)   Bb Ab
-------------------------------------------------------------
-------------------------------------------------------------
-5-4-2-------------------------------------------------------
-5-4-2-------------------------------------------------------
-3-2-0-------------------------------------------------------
-------------------------------------------------------------
(Ending First Time Through)   Bb A Ab
-------------------------------------------------------------
-------------------------------------------------------------
-5-4-3-2-----------------------------------------------------
-5-4-3-2-----------------------------------------------------
-3-2-1-0-----------------------------------------------------
-------------------------------------------------------------
(Ending Second and Third Time Through) Verse:
                     Db    B Db    B Db    B Db   Eb DbC Ab
-------------------------------------------------------------
-------------------------------------------------------------
---------------------7-7-7-5-7-7-7-5-7-7-7-5-7-7-7-9-7-6-2---
-----0--------0---0--7-7-7-5-7-7-7-5-7-7-7-5-7-7-7-9-7-6-2---
-0-3---3--0-3---3----5-5-5-3-5-5-5-3-5-5-5-3-5-5-5-7-5-4-0---
-------------------------------------------------------------
(Guitar 1)           (Enter Guitar 2) (First Part Played with
misc. Feedback and Noise from Guitar 2) Chorus:
Ab B Ab   B Ab   B AbDb
-------------------------------------------------------------
-------------------------------------------------------------
-2-5-2--2-5-2--2-5-2-7---------------------------------------
-2-5-2--2-5-2--2-5-2-7---------------------------------------
-0-3-0--0-3-0--0-3-0-5---------------------------------------
-------------------------------------------------------------
(Guitars 1 and 2) Ending:
 Eb
-------------------------------------------------------------
-------------------------------------------------------------
-9-----------------------------------------------------------
-9-----------------------------------------------------------
-7-----------------------------------------------------------
-------------------------------------------------------------
(Guitars 1 and 2)
[ Tab from: http://www.guitartabs.cc/tabs/m/mudhoney/no_end_in_sight_tab.html ]
Comments