Mudhoney - Judgement Rage Retribution And Thyme Chords & Tabs

 

Judgement Rage Retribution And Thyme Chords & Tabs

Mudhoney Chords & Tabs

Version: 1 Type: Bass Tab 0 ratings
1 star 2 stars 3 stars 4 stars 5 stars
comments

Judgement Rage Retribution And Thyme Bass Tab

"Judgement, rage, retribution, and thyme"
MUDHONEY my bro the cow
Tabbed by DirectR3@aol.com

                  Intro

                 G|---------------------|
                 D|---------------------|
                 A|--5--4--2--4---------|
Rest 2 measures  E|---------------4-4---| 4 measures

Verse
[ Tab from: http://www.guitartabs.cc/tabs/m/mudhoney/judgement_rage_retribution_and_thyme_btab.html ]
G|---------------------------------------------------------------------|
D|---------------------------------------------------------------------|
A|--7-7-7-7-7-7-7-7-7-7-7-7------6---4----------5-4-2-4-----5-4-2-4----|
E|---------------------------------------------------4-4---------4-4---|

End of each verse
                 ยด
G|----------------------------------------------------------------------------------|
D|----------------------------------------------------------------------------------|
A|-6-6-6-6-6-6-6-4-mute--------------5-4-2-4-----5-4-2-4-----5-4-2-4-----5-4-2-4----|
E|-------------------------------------------4-4---------4-4---------4-4---------4-4|

Very End of the Song

G|--------------------------|
D|--------------------------|
A|--5--4--2--4--2-----------|
E|-----------------4--2--4--|

All right!!

Comments