Mudhoney - Into Your Shtik Chords & Tabs

 

Into Your Shtik Chords & Tabs

Mudhoney Chords & Tabs

Version: 1 Type: Bass Tab 0 ratings
1 star 2 stars 3 stars 4 stars 5 stars
comments

Into Your Shtik Bass Tab

"Into your Shtik"
MUDHONEY my bro the cow
Tabbed by DirectR3@aol.com


Intro/Verse riff       ´    ´
G|------------------------------|
D|------------------------------|
A|---------------------2----2---|
E|--2-2--4-4--5-5--4-4----------|

Bridge
G|-------------------------------------------------|
D|-------------------------------------------------|
A|-------------------------------------------------|
E|--6-6-6-6-6-6-6-4-4-4-4-4-4-4-4-1-1-1-1-1-1-1-1--|
[ Tab from: http://www.guitartabs.cc/tabs/m/mudhoney/into_your_shtik_btab.html ]
Chorus
G|-------------------------------------------------------------|
D|-------------------------------------------------------------|
A|-4-4-4-4-4-4-4-4-4-4-4------------4--------------------------|
E|-------------------------2----------2------------------------|

G|----------------------------------------------------------------------------|
D|----------------------------------------------------------------------------|
A|-4-4-4-4-4-4-4-4-4-4-4-4-4-4-4-4-4-4-4-4-4----------------------------------|
E|--------------------------------------------2-2-2-2-2-2-2-2-2-2-2-2-2-2-2-2-|

Comments