Mudhoney - Fdk Chords & Tabs

 

Fdk Chords & Tabs

Mudhoney Chords & Tabs

Version: 2 Type: Bass Tab 0 ratings
1 star 2 stars 3 stars 4 stars 5 stars
comments

Fdk Bass Tab

"FDK (Fearless Doctor Killers)"
MUDHONEY my bro the cow
Tabbed by DirectR3@aol.com

Verse
G|-------------------------------------------------------------|
D|-------------------------------------------------------------|
A|-2-2-2-2-2-2-2-2-2-2-2-2-2---1-1-1-1-------------1-1-1-1-1---|
E|-------------------------------------0-0-0-0-0-0-------------|
[ Tab from: http://www.guitartabs.cc/tabs/m/mudhoney/fdk_btab_ver_2.html ]
Chorus
G|-----------------------------------|
D|-----------------------------------|
A|--4-4-4-4-4-4-4-4-2-2-2-2-2-2-2-2--|
E|-----------------------------------|

Just after Chorus (I kill you...)
G|------------------------------------------|
D|------------------------------------------|
A|--2--7--7--6--6--5--5--1-1-1-1-1-1-1-1-1--|
E|------------------------------------------|
Comments