Mudhoney - By Her Own Hand Chords & Tabs

 

By Her Own Hand Chords & Tabs

Mudhoney Chords & Tabs

Version: 2 Type: Bass Tab 0 ratings
1 star 2 stars 3 stars 4 stars 5 stars
comments

By Her Own Hand Bass Tab

                            By her own hand
                                Mudhoney
                            transcribed by: chinito@bardo.clearlight.com

[ Tab from: http://www.guitartabs.cc/tabs/m/mudhoney/by_her_own_hand_btab_ver_2.html ]
         only riff in this song                                         
G---||------------------------------------------------------------------
D---||*--------------------8--6-----------------------------6--4--------
A---||*--6--6-----6--6--6--------8--6-----4--4-----4--4--4--------6-----
E---||------------------------------------------------------------------
                                                                        

                                                                        
G-------------------------------------||--------------------------------
D------------------------4--2--------*||--------------------------------
A---4--2--2-----2--2--2--------4--2--*||--------------------------------
E-------------------------------------||--------------------------------
                                                                        



Comments