Muddy Waters - I Feel Like Goin Home Chords & Tabs

 

I Feel Like Goin Home Chords & Tabs

Muddy Waters Chords & Tabs

Version: 1 Type: Tab 1 rating
1 star 2 stars 3 stars 4 stars 5 stars
comments

I Feel Like Goin Home Tab

   
played in Open G (D G D G B D from low to high)

D-|-/12-12-12-12-/12-/12-/12-/12-/12-/12-/12-/12------------------------------|
B-|----------------------------------------------/12-/12-/12-/12-/12-/12------|
G-|----------------------------------------------------------------------/12~-|
D-|---------------------------------------------------------------------------|
G-|---------------------------------------------------------------------------|
D-|---------------------------------------------------------------------------|



|-/12-12-12-12-/12-/12-/12-/12-/12-/12-10-/12-----12------------------------|
|---------------------------------------------/12----12-/12-/12-/12---------|
|-------------------------------------------------------------------/12~----|
|---------------------------------------------------------------------------|
|---------------------------------------------------------------------------|
|---------------------------------------------------------------------------|



|---------------------------------------------------------------------------|
|---------------------------------------------------------------------------|
|12-11-10-9#-9-8#-8-/5~--5-5-5-5-5-5-5-/5-5-/5-/5-/5-/5-/5-s-3-0-/3-p-0-0---|
|---------------------------------------------------------------------------|
|-------------------------------------------------------------------------0-|
|---------------------------------------------------------------------------|



|---------------------------------------------------------------------------|
|---------------------------------------------------------------------------|
|---------------------------------------------------------------------------|
|------0-/5-s-3-0--------------/5~-5-/5~-5-5------0-/7~-----0-/7~------0-/5~|
|-0-/3------------/3-p-0-/3--0---------------0-/3--------/3-------0-/3------|
|---------------------------------------------------------------------------|


                           (*               *)
|---------------------------------------------------------------------------|
|---------------------------------------------------------------------------|
|------------------------0--------------------------------------------------|
|------0-/5~-0--------------3-3-3-2-2-2-1-1-1-0----0--------------------0---|
|-0-/3---------/3-0-/3-0------------------------/3---/7~-------------/3-----|
|---------------------------------------------------------------------------|
                                                         well, get in

       (*                   *)             (*     *)                  (*
|---------------------------------------------------------------------------|
|---------------------------------------------------------------------------|
|---------------------------------------------------------------------------|
|-0-----3-----3------2------2-----0----0--0-3-3-2-2-0----0------0------3----|
|-----------------------------------/3----------------/3--------------------|
|---------------------------------------------------------------------------|
 late in the evening I feel like I      goin' a home       when I woke up

                  *)            (*        *)
|---------------------------------------------------------------------------|
|---------------------------------------------------------------------------|
|---------------------------------------------------------------------------|
|-----3-----2-----2----0----0-0--3--3--2--2--0--------5~--------------------|
|------------------------/3---------------------3-s-5-----------------------|
|---------------------------------------------------------------------------|
 this morning all I had        I had was gone            late in the evening


|---------------------------------------------------------------------------|
|---------------------------------------------------------------------------|
|----------------------------------------------------/5~-/5~-5s3p0-0-/3-0---|
|------------5~-----------------5~------------------------------------------|
|------3-s-5--------------3-s-5----------/3------0--------------------------|
|---------------------------------------------------------------------------|
 child          feel like          like goin' a home


|---------------------------------------------------------------------------|
|---------------------------------------------------------------------------|
|-/5-5~-/5-5~\--------------------------------------------------------------|
|---------------------------7~------------------------------------5~--------|
|----------------------5-s7---------------------------------3-s-5-----------|
|---------------------------------------------------------------------------|
               well, I         woke up this morning and all          all I

                  (*               *)                             (*
|--------------------0-----0-----0------------------------------------------|
|---------------------------------------------------------------------------|
|-------------0-------------------------------------------------------------|
|------------------3---3-2---2-1---1-0----0--0--------------0------3------3-|
|---------------0----------------------/3-----------/3-0--------------------|
|---------------------------------------------------------------------------|
 had was gone                                  well     brook's running into

                 *)                  (*         *)                 (*
|---------------------------------------------------------------------------|
|---------------------------------------------------------------------------|
|---------------------------------------------------------------------------|
|-------2--------2-------0----0---0---3---3--2--2--0----0-----0-----3-----3-|
|--------------------------/3------------------------/3---------------------|
|---------------------------------------------------------------------------|
 the ocean, ocean running       into the sea              if I don't find my

              *)                (*        *)
|---------------------------------------------------------------------------|
|---------------------------------------------------------------------------|
|---------------------------------------------------------------------------|
|------2------2-------0----0--0--3--3--2--2--0---------5~-------------------|
|-----------------------/3-----------------------3-s-5----------------------|
|---------------------------------------------------------------------------|
 baby somebody's going       sure bury me yeah oh        brook's running into

[ Tab from: http://www.guitartabs.cc/tabs/m/muddy_waters/i_feel_like_goin_home_tab.html ]
|---------------------------------------------------------------------------|
|---------------------------------------------------------------------------|
|---------------------------------------------------------------------------|
|--------------------------5~---------------------------------5-------------|
|--------------------3-s-5------------------------------3-s-5---------------|
|---------------------------------------------------------------------------|
 the ocean boys yeah          and the ocean out look out        running to


|------------/8--/5---------------------------------------------------------|
|------------/8--/5--5------------------------------------------------------|
|--------0-----------5----0-/12-12~-12-12~----------------------------------|
|--------------------5-------------------------------7~---------------------|
|---/3-----0-----------/3----------------------5-s-7----------------------0-|
|---------------------------------------------------------------------------|
 the sea                                   now          don't find my baby

                                           (*               *) 
|----------------------------------------------0-----0-----0----------------|
|---------------------------------------------------------------------------|
|-------------------------------------0---0---------------------------------|
|-------5~---------------5------------------3---3-2---2-1---1-0----0--0-----|
|-3-s-5-------------/5------------------0-----------------------/3----------|
|---------------------------------------------------------------------------|
         somebody's sure going bury me                                  well


|------/12-12-12-12-/12-/12-/12-/12-/12-/12-/12-/12-------------------------|
|---------------------------------------------------/12-/12-/12-/12-/12-/12-|
|---------------------------------------------------------------------------|
|---------------------------------------------------------------------------|
|--/3-----------------------------------------------------------------------|
|---------------------------------------------------------------------------|
 right


|--------/12-12-12-12-/12-/12-/12-/12-/12-/12-/12-----12--------------------|
|-------------------------------------------------/12----12-/12-/12-/12-----|
|/12~-------------------------------------------------------------------/12~|
|---------------------------------------------------------------------------|
|---------------------------------------------------------------------------|
|---------------------------------------------------------------------------|
      hey 


|---------------------------------------------------------------------------|
|---------------------------------------------------------------------------|
|-12-11#-11-10#-10-9#-9-8#-8--/5---5-5-5-5-5-5-5-5-5-5-/5-5-5-5-5-/5-5-5-5-5|
|---------------------------------------------------------------------------|
|---------------------------------------------------------------------------|
|---------------------------------------------------------------------------|



|---------------------------------------------------------------------------|
|---------------------------------------------------------------------------|
|-/5-s-3-0-/3p0-0-----------------------------------------------------------|
|-------------------------0-/5-s-3-0-----------/5-5~-/5-5-5~-------0-/7~----|
|-----------------0--0-/3------------/3p0-/3-0----------------0-/3----------|
|---------------------------------------------------------------------------|


                                                     (*               *)
|-------------------------------------------------------0-----0-----0-------|
|---------------------------------------------------------------------------|
|---------------------------------------------------0-----------------------|
|------0-/7~-------0-/5~-------0-/5-s-3-0-------------3---3-2---2-1---1-0---|
|-0-/3--------0-/3--------0-/3------------/3p0-/3-0-------------------------|
|---------------------------------------------------------------------------|


                         (*           *)               (*           *)
|---------------------------------------------------------------------------|
|---------------------------------------------------------------------------|
|---------------------------------------------------------------------------|
|----0--0---------0---0---3---3---2---2----0----0---0---3---3---2---2----0--|
|-/3-----------/3----------------------------/3-----------------------------|
|---------------------------------------------------------------------------|
          well      minutes seem like hours       begin to seem like days

              (*              *)               (*           *)
|---------------------------------------------------------------------------|
|---------------------------------------------------------------------------|
|---------------------------------------------------------------------------|
|----0----0----3----3----2----2----0-----0--0---3---3---2---2--0-------5~---|
|-/3----------------------------------/3-------------------------3-s-5------|
|---------------------------------------------------------------------------|
      seems like my baby will stop on      whole week away aahaa


|---------------------------------------------------------------------------|
|---------------------------------------------------------------------------|
|--------------------------------------------------------0------------------|
|------------------------------5~---------------------------------0-5-s-3-0-|
|------------------------3-s-5-----------------------------0-0-/3-----------|
|---------------------------------------------------------------------------|
 minutes seem like hours          an hour seems like days
                      

|---------------------------------------------------------------------------|
|---------------------------------------------------------------------------|
|---------------------------------------------------------------------------|
|-----------/5-5~-/5-5-5~--------7~--------------------------5~-------------|
|-/3p0-/3-0----------------5-s-7-----------------------3-s-5----------------|
|---------------------------------------------------------------------------|
                      well          seems like my baby          hoohoo well


|---------------------------------/12---------------------------------------|
|---------------------------------/12-/12--/12-/12--------------------------|
|-----------------------------0-------/12--/12-/12-12\--/3-0----------------|
|------5---------------------------------------------------------0-/5~------|
|3-s-5--------------------------0-----------------------------/3------------|
|---------------------------------------------------------------------------|
  boy    will stop on our way

corrections email me pothead_j@hotmail.com
Comments