Msg - Armed And Ready Chords & Tabs

 

Armed And Ready Chords & Tabs

Msg Chords & Tabs

Version: 1 Type: Tab 0 ratings
1 star 2 stars 3 stars 4 stars 5 stars
comments

Armed And Ready Tab

                MICHEAL SHANKER GROUP
                   ARMED AND READY

TUNING--STANDARD(EADGBe)

----------------------------------------------------------------------|
----------------------------------------------------------------------|
--------9-----9-----7------------------9-----9-----7------------------| REPEAT
--------9-----9-----7------7-----------9-----9-----7-----7------------|   X
--------7-----7-----5------7-----------7-----7-----5-----7------------|   3
----0-0---0-0---0-0---0-0--5-3-5-6-0-0---0-0---0-0---0-0-5-3-2-0------|
PM  . .   . .   . .   . .          . .   . .   . .   . .

----------------------------------------------------------------------|
-----------------------------------------------------------*LET RING*-|
--------9-----9-----7------------------9-----9-----7------------------|
--------9-----9-----7------7-----------9-----9-----7-----7*-----------|
--------7-----7-----5------7-----------7-----7-----5-----7*-----------|
----0-0---0-0---0-0---0-0--5-3-5-6-0-0---0-0---0-0---0-0-5*-----------|
PM  . .   . .   . .   . .          . .   . .   . .   . .

----------------------------------------------------------------------|
----------------------------------------------------------------------|
--------9-----9-----7------------------9-----9-----7------------------| REPEAT
--------9-----9-----7------7-----------9-----9-----7-----7------------|   X
--------7-----7-----5------7-----------7-----7-----5-----7------------|   3
----0-0---0-0---0-0---0-0--5-3-5-6-0-0---0-0---0-0---0-0-5---3-2-0----|
PM  . .   . .   . .   . .          . .   . .   . .   . .
----------------------------------------------------------------------|
-----------------------------------------------------------*LET RING*-|
--------9-----9-----7------------------9-----9-----7------------------|
--------9-----9-----7------7-----------9-----9-----7-----7*-----------|
--------7-----7-----5------7-----------7-----7-----5-----7*-----------|
----0-0---0-0---0-0---0-0--5-3-5-6-0-0---0-0---0-0---0-0-5*-----------|
PM  . .   . .   . .   . .          . .   . .   . .   . .
----------------------------------------------------------------------|
----------------------------------------------------------------------|
----------------------------------------------------------------------|
----------------------------------------------------------------------|
----------------------------------------------------------------------|
----10-10-10-10-10-10-10-10-10-12-12-12-12-12-12-12-12-12-12----------|

----------------------------------------------------------------------|
-----------------------------------------------------------*LET RING*-|
--------9-----9-----7------------------9-----9-----7------------------|
--------9-----9-----7------7-----------9-----9-----7-----7*-----------|
--------7-----7-----5------7-----------7-----7-----5-----7*-----------|
----0-0---0-0---0-0---0-0--5-3-5-6-0-0---0-0---0-0---0-0-5*-----------|
PM  . .   . .   . .   . .          . .   . .   . .   . .
[ Tab from: http://www.guitartabs.cc/tabs/m/msg/armed_and_ready_tab.html ]
----------------------------------------------------------------------|
----------------------------------------------------------------------|
--------9-----9-----7------------------9-----9-----7------------------| REPEAT
--------9-----9-----7------7-----------9-----9-----7-----7------------|   X
--------7-----7-----5------7-----------7-----7-----5-----7------------|   3
----0-0---0-0---0-0---0-0--5-3-5-6-0-0---0-0---0-0---0-0-5---3-2-0----|
PM  . .   . .   . .   . .          . .   . .   . .   . .
----------------------------------------------------------------------|
-----------------------------------------------------------*LET RING*-|
--------9-----9-----7------------------9-----9-----7------------------|
--------9-----9-----7------7-----------9-----9-----7-----7*-----------|
--------7-----7-----5------7-----------7-----7-----5-----7*-----------|
----0-0---0-0---0-0---0-0--5-3-5-6-0-0---0-0---0-0---0-0-5*-----------|
PM  . .   . .   . .   . .          . .   . .   . .   . .

----------------------------------------------------------------------|
----------------------------------------------------------------------|
----------------------------------------------------------------------|
----------------------------------------------------------------------|
----------------------------------------------------------------------|
----10-10-10-10-10-10-10-10-10-12-12-12-12-12-12-12-12-12-12----------|

----------------------------------------------------------------------|
----------------------------------------------------------------------|
------------9---------9-7---------------------------------------------| REPEAT
------------9---------9-7---------------------------------------------|   X
------------7---------7-5---------------------------------------------|   2
----0-0-0-0---0-0-0-0-------------------------------------------------|
PM  . . . .   . . . .
----------------------------------------------------------------------|
----------------------------------------------------------------------|
----------------------------------------------------------------------|
----------------------------------------------------------------------|
----------------------------------------------------------------------|
----10-10-10-10-10-10-10-10-10-12-12-12-12-12-12-12-12-12-12----------|

----------------------------------------------------------------------|
----------------------------------------------------------------------|
----------------------------------------------------------------------|
----------7-------7-------7-------------------------------------------|
----------7-------7-------7-------------------------------------------|
----0-2-5-5-0-2-5-5-0-2-5-5-----3-5-6-5-3-2---------------------------|
PM  .       .       .

----------------------------------------------------------------------|
----------------------------------------------------------------------|
----------------------------------------------------------------------|
----------7-------7-------7----5--7--8--9-----------------------------|
----------7-------7-------7----5--7--8--9-----------------------------|
----0-2-5-5-0-2-5-5-0-2-5-5----3--5--6--7-----------------------------|
PM  .       .       .

----SOLO--------------------------------------------------------------|
----------------------------------------------------------------------|
--------------IF-ANY-ONE-KNOWS-THE-SOLO-CAN-U-PLZ-POST-IT-------------|
----------------------------------------------------------------------|
----------------------------------------------------------------------|
----------------------------------------------------------------------|

LYRICS

Are you high tonight, are you feeling right,
Cos I need you now, like I never did before,
Is it hard enough, is It loud enough
Cos if you don't approve,you can use the door
Armed and ready,I gotta gunsight trained on you
I'm in overdrive,and I feel alive,
Got everything I need, and that ain't all,
Got a thing to do, I wanna do for you,
I wanna see you jump like hell when I call
Armed and ready, I gotta spotlight trained on you
Armed and ready, don't let me down tonight
Are you high tonight, are you feeling right,
Cos I need you now, like I never did before,
Is it hard enough, is It loud enough
Cos if you don't approve,you can use the door
Armed and ready,I got my gunsight trained on you
Armed and ready,don't let me down tonight
Are you high tonight, are you feelin right,
is it hard enough, is it loud enough,
Are you high!


HAVE FUN
   ANY QUESTIONS OR COMMENTS
             Modestodeathcruz@yahoo.com
Comments