Ms Dynamite - Put Him Out Chords & Tabs

 

Put Him Out Chords & Tabs

Ms Dynamite Chords & Tabs

Version: 1 Type: Tab 0 ratings
1 star 2 stars 3 stars 4 stars 5 stars
comments

Put Him Out Tab

   
Ms Dynamite - Put him out

Tabbed By - Dave

This is my first tab but its accurate.
E-mail me and let me know what you think - big_dave180@hotmail.com
Standard Tuning - E, B, G, D, A, E.



E |--------------------------------------------|
B |--------------------------------------------|
G|----11-13-14-13-11-10-13---------|
D|-11-----------------------11-----|
A|--------------------------------------------|
E |--------------------------------------------|
[ Tab from: http://www.guitartabs.cc/tabs/m/ms_dynamite/put_him_out_tab.html ]
E |-----------------------------------|
B |-------------------/12v----|
G|----11-13-14-13-11---------|
D|-11------------------------------|
A|-----------------------------------|
E |-----------------------------------|

E |--------------------------------------------|
B |--------------------------------------------|
G|----11-13-14-13-11-10-13---------|
D|-11----------------------11-----|
A|--------------------------------------------|
E |--------------------------------------------|


E |---------12-------------------------------|
B |-12-14----14-12----------------------|
G|-----------------14-13-11---------|
D|--------------------------------------------|
A|--------------------------------------------|
E |--------------------------------------------|

E-mail me and let me know what you think - big_dave180@hotmail.com
Comments