Mraz Jason - The Remedy Acoustic Chords & Tabs

 

The Remedy Acoustic Chords & Tabs

Mraz Jason Chords & Tabs

Version: 1 Type: Tab 1 rating
1 star 2 stars 3 stars 4 stars 5 stars
comments

The Remedy Acoustic Tab

Song:  The Remedy (I Won't Worry) -- Acoustic
Artist:  Jason Mraz
Submitted By:  Kyle Voiles

This is Jason Mraz's acoustic version of this song which is just a lot of fun
to play.  He does a lot of muting and slapping in this version, which I don't 
always show in the tab, but these fingerings ARE correct.  The timing is hard
to show here but if you download the acoustic version you'll understand it 
better.  Note -- this may NOT specifically match the radio version of the song.
His acoustic version is a little different, and much better in my opinion.  :)
Questions, comments, complaints, threats.. send to kvoiles@pressenter.com.
Enjoy!

Standard tuning. No capo.
/  = Slide up
  = Slide down
x  = Mute or slap
() = 'Walk' to the next chord -- barely play it
*  = number of times to play the chord or line

Intro:

(At the final barre with the slide down he just slides and fades it out)
                                                                         
E---3--x--6-6-6--x---|---1--x--8--8--8--|--(9)--10--10--10---|--5-5-5---6-6---8---|
B---3--x--6-6-6--x---|---1--x--8--8--8--|--(9)--10--10--10---|--5-5-5---6-6---8---|
G---3--x--8-8-8--x---|---3--x-10-10-10--|-(11)--12--12--12---|--7-7-7---8-8--10---|   
D---5--x--8-8-8--x---|---3--x-10-10-10--|-(11)--12--12--12---|--7-7-7---8-8--10---|
A---5--x--6-6-6--x---|---1--x--8--8--8--|--(9)--10--10--10---|--5-5-5---6-6---8---|
E---3--x--6-6-6--x---|---1--x--8--8--8--|--(9)--10--10--10---|--5-5-5---6-6---8---|

E---1--x--6-6-6--x---|---8--x--8--8--8--|--(9)--10--10--10---|--5-5-5---6-6---8----|
B---1--x--6-6-6--x---|---8--x--8--8--8--|--(9)--10--10--10---|--5-5-5---6-6---8----|
G---3--x--8-8-8--x---|--10--x-10-10-10--|-(11)--12--12--12---|--7-7-7---8-8--10----|   
D---3--x--8-8-8--x---|--10--x-10-10-10--|-(11)--12--12--12---|--7-7-7---8-8--10----|  *2
A---1--x--6-6-6--x---|---8--x--8--8--8--|--(9)--10--10--10---|--5-5-5---6-6---8----|
E---1--x--6-6-6--x---|---8--x--8--8--8--|--(9)--10--10--10---|--5-5-5---6-6---8----|

Verse:
(Stroke on the word above the chord. Only wrote the first line as an example. You get it.)
[ Tab from: http://www.guitartabs.cc/tabs/m/mraz_jason/the_remedy_acoustic_tab.html ]
                               closed eyes 
Well I saw   from the   and      I cannot  
fireworks    freeway   behind      make    born     July       something 
E---3----x----3------|---1----x-----1---|---3----x----3------|---1---x---x---x-----|
B---3----x----3------|---1----x-----1---|---3----x----3------|---1---x---x---x-----|
G---3----x----5------|---2----x-----3---|---3----x----5------|---2---x---x---x-----|
D---5----x----5------|---3----x-----3---|---5----x----5------|---3---x---x---x-----|
A---5----x----3------|---3----x-----1---|---5----x----3------|---3---x---x---x-----|
E---3----x----3------|---1----x-----1---|---3----x----3------|---1---x---x---x-----|

Pre-Chorus:
  remedy  experience   dangerous  liason  comedy    serious   strange   play    
E---3----x----3------|---1----x-----1---|---3----x----3------|---1---x---1---x-----|
B---3----x----3------|---1----x-----1---|---3----x----3------|---1---x---1---x-----|
G---3----x----5------|---2----x-----3---|---3----x----5------|---2---x---3---x-----|
D---5----x----5------|---3----x-----3---|---5----x----5------|---3---x---3---x-----|  *2
A---5----x----3------|---3----x-----1---|---5----x----3------|---3---x---1---x-----|
E---3----x----3------|---1----x-----1---|---3----x----3------|---1---x---1---x-----|

(Second time around on pre-chorus mute after the F Chord like the verse)

Chorus:

E---1--x--6-6-6--x---|---8--x--8--8--8--|--(9)--10--10--10---|--5-5-5---6-6---8----|
B---1--x--6-6-6--x---|---8--x--8--8--8--|--(9)--10--10--10---|--5-5-5---6-6---8----|
G---3--x--8-8-8--x---|--10--x-10-10-10--|-(11)--12--12--12---|--7-7-7---8-8--10----|   
D---3--x--8-8-8--x---|--10--x-10-10-10--|-(11)--12--12--12---|--7-7-7---8-8--10----|  *2
A---1--x--6-6-6--x---|---8--x--8--8--8--|--(9)--10--10--10---|--5-5-5---6-6---8----|
E---1--x--6-6-6--x---|---8--x--8--8--8--|--(9)--10--10--10---|--5-5-5---6-6---8----|

Verse
Pre-Chorus
Chorus

Bridge:
(Downstroke only, 8 times each chord. Note the minor change in the sixth measure)

         When I fall in love    I take my time  .. no need to hurry
E---3----------------|---6--------------|---1----------------|---8-----------------|
B---3----------------|---6--------------|---1----------------|---8-----------------|
G---3----------------|---8--------------|---3----------------|--10-----------------|
D---5----------------|---8--------------|---3----------------|--10-----------------|
A---5----------------|---6--------------|---1----------------|---8-----------------|
E---3----------------|---6--------------|---1----------------|---8-----------------|

 ..mind  ..turn off the sun            ..shine        ..tell you why
E---3----------------|---6--------------|---1----------------|---8-----------------|
B---3----------------|---7--------------|---1----------------|---8-----------------|
G---3----------------|---8--------------|---3----------------|--10-----------------|
D---5----------------|---8--------------|---3----------------|--10-----------------|
A---5----------------|---6--------------|---1----------------|---8-----------------|
E---3----------------|---6--------------|---1----------------|---8-----------------|


Hope you enjoy it.  Chicks dig it when you sing this song to them.
Kyle Voiles
kvoiles@pressenter.com



Comments