Mraz Jason - Sleep All Day (acoustic Version By Azriel) Chords & Tabs

 

Sleep All Day (acoustic Version By Azriel) Chords & Tabs

Mraz Jason Chords & Tabs

Version: 1 Type: Tab 2 ratings
1 star 2 stars 3 stars 4 stars 5 stars
comments

Sleep All Day (acoustic Version By Azriel) Tab

SLeep All Day (Acoustic version)
by Jason Mraz
tabbed by: Azriel


Tunning:  Capo 2

Intro:

Strum Chords

---5---0---8---0---
---0---0---6---0---
---0---5---5---4---
---5---5---0---5---
---3---x---x---5---
---x---5---x---3---

verse:

---0---0---0---0---
---0---0---6---0---
---5---5---5---4---
---5---5---0---5---
---3---x---x---5---
---x---5---x---3---

chorus:

---0---5p3---0---5p3---8---5---0---5p3
---0---------0---------6---5---0------
---5---------5---------5---5---4------
---5---------5---------0---0---5------
---3---------x---------x---x---5------
---x---------5---------x---x---3------
[ Tab from: http://www.guitartabs.cc/tabs/m/mraz_jason/sleep_all_day_acoustic_version_by_azriel_tab.html ]
It doesn't matter how you do the pull-up part just as long as 
you manage to do it...if you can't then don't...but if you want 
to add up some spice to it...do you're best...

"if all is grounded..."

---8---5---0---0---
---6---5---0---0---
---5---5---4---5---    pause...
---0---0---5---5---
---x---x---5---3---
---x---x---3---x---

you can substitute --1--   to this chord --0--  in the "if all is grounded.." part...
                   --1--                 --0--
                   --2--                 --4--
                   --3--                 --5--
                   --3--                 --5--
                   --1--                 --3--

that's it!
try to do some improvisation through out the whole song...
especially in the chorus...
this is really a great song...
hope you like my version and rate this tab...
 

Comments