Mr Bungle - Disco Volante Chords & Tabs

 

Disco Volante Chords & Tabs

Mr Bungle Chords & Tabs

Version: 1 Type: Bass Tab

Disco Volante Bass Tab

   
Album: Disco Volante
Artist: Mr. Bungle
Tabbed by: 12thFretTag

Tracklisting:

1: Everyone I Went To Highschool With Is Dead (Words/Music: T. Dunn)
2: Chemical Marriage (Music: T. Spruance)
3: Carry Stress In The Jaw (Words/Music: T. Dunn)
4: Desert Search For Techno Allah (Words: T. Spruance; Music: T. Spruance, M. Patton)
5: Violenza Domestica (Words: M. Patton; Music: M. Patton, T. Spruance)
6: After School Special (Words: C. McKinnon, T. Dunn, M. Patton; Music: C. McKinnon)
7: Phlegmatics (Words/Music: T. Dunn)
8: Ma Meeshka Mow Skwoz (Music: T. Spruance)
9: The Bends (Music: M. Patton/T. Spruance/C. McKinnon)
   I: Man Overboard
  II: The Drowning Flute
 III: Aqua Swing
  IV: Follow the Bubbles
   V: Duet for Guitar and Oxygen Tank
  VI: Nerve Damage
 VII: Screaming Bends
VIII: Panic in Blue
  IX: Love on the Event Horizon
   X: Re-Entry
10: Backstrokin' (Music: M. Patton)
11: Platypus (Words: T. Dunn; Music: T. Dunn, T. Spruance)
12: Merry Go Bye Bye (Words/Music: T. Spruance)


Produced by: Mr. Bungle
Engineered and mixed by Billy Anderson
Assisted by Mike Johnson
Additional assistance from Kevin Donlon, Chris Roberts,
Mike Bogus, David Ogilvy, Adam Munoz, Trevor Ward
Recorded at Brilliant Studios, Hyde Street Studios, Coast Recorders,
and Shotwell Bomb Factory, San Francisco; and Mills College Concert Hall, Oakland
Mixed at Soundcastle, Silverlake, CA; and Different Fur, San Francisco
Mastered by Bernie Grundman, Los Angeles
Pre-Mastering by Billy Anderson and Mike Johnson

Mr. Bungle is:

Mike Patton: Vocals, Microcassette, Organs on "The Bends" and "Backstrokin'", Ocarina
on "Carry Stress In The Jaw"
Trevor Dunn: Bass, Vile
Trey Spruance: P'ip'a, Keyboards/Organs, Guitar, Electronics
Clinton McKinnon: Tenor Sax, Clarinets, Keyboards on "After School Special", Drums
on "Desert Search For Techno Allah"
----------------------------------------------------------------------------

Track 1: Everyone I Went To High School With Is Dead
Track Length: 2:45


Intro
Heavy Distortion

G|---------------------12--|
D|-9\----------------------|
A|-9\-----------5------12--|
E|------5---5---3---6------|
B|------3---3-------4------|


    <     X     3    >
G|------------------------|----------------------------|
D|------------------------|----------------------------|
A|------------------------|----------------------------| X2
E|-------8--------------6-|-------8-----------10--8--6-|
B|-3--3--6--3--3--3--5--4-|-3--3--6--3--3--3--8---6--4-|


00:39          <    X     6    >
G|----------|---------------------|------------------|
D|----------|-6/8---12\-----------|-6/9---13\--------|
A|----------|-6/8-----------------|-6/9--------------|
E|-10--8--6-|-------------4--2--1-|-------------4--2-|
B|-8---6--4-|---------------------|------------------|

00:52
G|-----------------------------------------------------------------------------------|
D|------------------------12\--------------------9\--------------------9\------------|
A|------------------------12\--------------------9\--------------------9\------------|
E|-----8---------------------------------------------------------------------8-------|
B|-6---6---6----6--6--6-------1--1/4--2--0----------1--1/4--2--0----------1--4--2--0-|

1:13                                             01:21
G|---------------------------hm-----------------------------------------------------|
D|--------------12\----------7---14\--------------9\---------------12\--------------|
A|--------------12\----------7---14\--------------9\---------------12\--------------|
E|-5--------------------------------------------------------------------------------|
B|-5---1--2--3------3--4--5----------3--5--7\\2------1--1/4--2--1------1--1/4--2--1-|

01:29                         T
G|---------------------------------|
D|-12\---------12\------------15\\-|
A|-12\---------12\-----------------|
E|---------------------------------|
B|-----1--3--1-----3--4--5--6------|


G|------------------------|----------------------------|
D|------------------------|----------------------------|
A|------------------------|----------------------------| X2
E|-------8--------------6-|-------8-----------10--8--6-|
B|-3--3--6--3--3--3--5--4-|-3--3--6--3--3--3--8---6--4-|


               <    X     10    >
G|----------|---------------------|------------------|
D|----------|-6/8---12\-----------|-6/8---12\--------|
A|----------|-6/8-----------------|-6/8--------------|
E|-10--8--6-|-------------4--2--1-|-------------4--2-|
B|-8---6--4-|---------------------|------------------|

Final
G|--------------------------------------|
D|--------------------------------------|
A|--------------------------------------|
E|----------------8\-----4\-----------4-|
B|-6----6----6----6\-----4\-----2-----2-|

----------------------------------------------------------------------------

Track 2: Chemical Marriage
Track Length: 3:09

00:16 / 01:11
G|-------------------------------------------------------------------|
D|-------------------------------------------------------------------|
A|-5---5---5---5---5---5---5---5---3---3---3---3-----3---3---3---3---|
E|---5---5---5---5---5---5---5---5---3---3---3---333---3---3---3---3-| Figure 1
B|-------------------------------------------------------------------|

00:31 / 01:37
G|-------------|
D|---5-r-------|
A|-5-----5-----|
E|---------3-r-| Figure 2
B|-------------|

00:39 / 01:02
G|-----------------------------|
D|-----------------------------|
A|-----------------------------|
E|-3-3-r-r-3-3-r-r-3-3-r-r-3-3-| Figure 3
B|-----------------------------|

00:47
G|-3---3-----4-----3---3-----4-3-5----------------------------------|
D|---3---3-2---2-2---3---3-2-------6---6-----------6-8-10-5---------|
A|-----------------------------------6---6-5---5------------5---5---|
E|-------------------------------------------5---5------------5---5-| Figure 4
B|------------------------------------------------------------------|

02:26
G|-3---3-----4-----3---3-----4-3-5---------------------------------|
D|---3---3-2---2-2---3---3-2-------6---6-----------6---6-----------|
A|-----------------------------------6---6-5---5-----6---6-5---5---|
E|-------------------------------------------5---5-----------5---5-| Figure 5
B|-----------------------------------------------------------------|

02:28
G|-------------------------------------|
D|-------------------------------------|
A|-------------------------------------|
E|-3-3-r-r-3-3-r-r-3-3-r-r-3/8 (b 1/2)-| Figure 6
B|-------------------------------------|


Keyboard/Drum Intro
Figure 1
Figure 2 (4x)
Figure 3
Figure 4
Figure 3
Figure 1
Figure 2 (8x)
Keyboard/Drum Solo
Figure 5
Figure 6

----------------------------------------------------------------------------

Track 3: 
Carry Stress In The Jaw
Track Length: 4:43

Sorry, Ive only tabbed the Edgar Allan Poe duet with Patton and Dunn with the Spy (secret song) so far.

Play to the vocals.

G|---------------------------------------------------------------11----|
D|----10--9--12-----------10-9-----12---------------------10-12--------|
A|--------------12-12-------------------14h12---11--10-12--------------|
E|---------------------------------------------------------------------|
B|---------------------------------------------------------------------|
      In the multiplied   ob jects of  th--e   e-   e   x ternal world


G|----14-16-14--13-14-13-----12----------1313---------12--10-----------|
D|----------- 16--------15------------------------11-----------11------|
A|----------------------------------------------------------------12---|
E|---------------------------------------------------------------------|
B|---------------------------------------------------------------------|
      I  h- a-d no-o- o-o    thoughts    but      for the tee  ee eeth

G|---------------10-------12-13----14-14-------------------------------|
D|----10--10-10--------------------------14-14-------------------------|
A|-----------------------------------------------13-12-11--10----------|
E|---------------------------------------------------------------------|
B|---------------------------------------------------------------------|
      and of Ber nice     I  more  se ri ously   be e  lie ved

G|---------------------12---------------------------14-11-12-----------|
D|-----------1313--13--------13141011-------13--14---------------------|
A|-----10-11-----------------------------------------------------------|
E|---------------------------------------------------------------------|
B|---------------------------------------------------------------------|
       th at all   her teeth were thoughts  the whi te and gastly


G|----13trem---14---16--17trem-----------------------------------------|
D|------------------------------12trem--12-13--------------13----------|
A|------------------------------------------------10--9--10------------|
E|---------------------------------------------------------------------|
B|---------------------------------------------------------------------|
       spectrum of  teeth medi  tations were never pleasura-ble

G|-----------------------------------------------------------------------|
D|--14trem--15trem--16trem--17trem-----17trem-----19trem---21trem--22--22|
A|-----------------------------------------------------------------------|
E|-----------------------------------------------------------------------|
B|-----------------------------------------------------------------------|
   the phan tasma   of the  teeth main tained its terrible ascen   da  cy!


Spy (Secret Song) (Enters at 4:43) *Tune drop 'D'* :


Quiet,
don't tell anybody
it's a secret
G|--------------------------|
D|--------------------------|
A|--------------------------|
D|--------------------------|
B|--------1-1-1-1-1-1-1-1-3-|

  <     X    3    >
G|------------------|-----------|-------------------|
D|------------------|-----------|-------------------|
A|------------------|-----------|-------------------|
D|-0-2-2-3-3------0-|-0-2-2-3-3-|-------------------|
B-------------------|-----------|-1-1-1-1-1-1-1-1-3-|

                              <     X     2    >
G|-----------------------|-------------------------|-------------|
D|-----------------2-2---|-------------------2-2---|-------------|
A|-----------2-3-4-----4-|-------------2-3-4-----4-|-------------|
D|-0-2-2-3-3-------------|-0-0-2-2-3-3-------------|-0-0-2-2-3-3-|
B|-----------------------|-------------------------|-------------|

  <     X    3    >
G|------------------|-----------|-------------------|
D|------------------|-----------|-------------------|
A|------------------|-----------|-------------------|
D|-0-2-2-3-3------0-|-0-2-2-3-3-|-------------------|
B-------------------|-----------|-1-1-1-1-1-1-1-1-3-|

                                                              Tststs ts etc
G|---------------|-----------|-------------------------------|--------|
D|---------------|-----------|-------------------------------|--------|
A|---------------|-----------|-/--\---X---/------------------|--------|
D|-0-2-2-3-3---0-|-0-2-2-3-3-|-/--\---X---/---6---4---3b---0-|-5------|
B|---------------|-----------|-------------------------------|--------|

05:41
G|-------------------|-------------------|-----------------|
D|-------------------|-------------------|-----------------|
A|-----5-----5-----4-|-----4-----4-----3-|-----3-----2---0-|
D|-0-3---0-3---0-3---|-0-3---0-3---0-3---|-0-3---0-3---3---|
B|-------------------|-------------------|-----------------|


G|---------|
D|---------|
A|-0h1-----|
D|-----3-2-|


G|-------------------|-------------------|-----------------|
D|-------------------|-------------------|-----------------|
A|-----5-----5-----4-|-----4-----4-----3-|-----3-----2---0-|
D|-0-3---0-3---0-3---|-0-3---0-3---0-3---|-0-3---0-3---3---|
B|-------------------|-------------------|-----------------|


G|-----------|
D|-----------|
A|-0h1-------|
D|-----3-2-0-|
B|-----------|

05:55
G|---|-----------------------------|-------------------------------|
D|---|-----------------------------|-------------------------------|
A|---|-----------------------------|-------------------------------|
D|-3-|-5--8--5---1-3-0---3--0---0-3|-5---8-8--5--1-3-0--3---0---0-3|
B|---|-----------------------------|-------------------------------|

                              somehow i found out         Ya
G|---------------------------|----------------------------16\|
D|---------------------------|----------------------------16\|
A|---------------------------|-------------------------------|
D|-5--8--5---1-3-0---3--3-00-|-8--8----8-10----7\------------|
B|---------------------------|-------------------------------|

G|--------------|--------------|--------------|-------------|
D|--------------|--------------|--------------|-------------|
A|--------------|--------------|----------0---|-----------/-|
D|-5--5---0-3-4-|-5--5---5-3-0-|-2--2---2---5-|-2---2-2---/-|
B|--------------|--------------|--------------|-------------|


        <       X        2      >
G|---------------------------------------|
D|---------------------------------------|
A|---------------------------------------|
D|-10-10-10-10-10-10-8-8-7-7-7-7-7-7-8-8-|
B|---------------------------------------|


  Tststs tsts etc
G|--------|
D|--------|
A|--------|
D|-5------|
B|--------|

G|-------------------|-------------------|-----------------|
D|-------------------|-------------------|-----------------|
A|-----5-----5-----4-|-----4-----4-----3-|-----3-----2---0-|
D|-0-3---0-3---0-3---|-0-3---0-3---0-3---|-0-3---0-3---3---|
B|-------------------|-------------------|-----------------|

G|---------|
D|---------|
A|-0h1-----|
D|-----3-2-|
B|---------|

G|-------------------|-------------------|-----------------|
D|-------------------|-------------------|-----------------|
A|-----5-----5-----4-|-----4-----4-----3-|-----3-----2---0-|
D|-0-3---0-3---0-3---|-0-3---0-3---0-3---|-0-3---0-3---3---|
B|-------------------|-------------------|-----------------|

                                         Nah NAH!
G|-----------------------------------------------|
D|-----------------------------------------------|
A|-0h1-----/---\---X---/-------------------------|
D|-----3-2-/---\---X---/---6---4---3b-----0---0--|
B|-----------------------------------------------|

G|-----------------------|-------------------------|
D|-----------------2-2---|-------------------2-2---|
A|-----------2-3-4-----4-|-------------2-3-4-----4-|
D|-0-2-2-3-3-------------|-0-0-2-2-3-3-------------|
B|-----------------------|-------------------------|

                                  (Live: Trevor plays here dissonant
                                  double stops, which is more fun to do)
G|-----------|-----------------------------------------------------------|
D|-----------|-------3-3-2-2---------------------------------------------|
A|-----------|-2-3-4---------1-3-1---3h4--------X3-----------------------|
D|-0-2-2-3-3-|------------------------------X4------X--1-----6-----0-3-4-|
B|-----------|-----------------------------------------------------------|

----------------------------------------------------------------------------

Track 4: 
Search For Techno Allah

No Bass.
----------------------------------------------------------------------------

Track 5: Violenza Domestica
Track Length: 5:14

Intro
(knife, distortion and stuff)

Cattiva come adesso, non sono stato mai.

while distortion fades out:

 bow               (bandoneon)            -Duet with piano-
G|-------------------|-------------|----------4---4---------------1---0--|------|
D|-3-----------------|-------------|-----------3---2-3-4-5---------2---2-|------|
A|------4----1-------|-------------|---0-2-3---------------5-4-3---------|-1--3-|
E|----------------2--|-------------|-2-----------------------------------|------|
B|-------------------|-------------|-------------------------------------|------|

     Ti faro male in posti nessuno potra mai vedere...nessuno!
G|------------------------------------------------------------|
D|-3----------------------------------------------------------|
A|-----------------------4-------1------------------1---------|
E|-----------------------------------------------2------------|
B|------------------------------------------------------------|

G|----------------------------------------------------------------------------------|
D|-3---------------------------------------------*1*---2---2h3----------------------|
A|-----------------------4-------1------------------------------------4--------6~~~-|
E|-------------------------------------------------------------------------3--------|
B|------------------------------------------------4---------------------------------|

per che      ma perque?
G|-------------|
D|-------------|
A|-------------|
E|-1--1---1--1-|
B|-------------|

(perque se cosi)

G|------------------------------------3---|
D|------------------------------------3---|
A|----------4-4-4-4-----3-3--6-6--4-3-----|
E|-1-1-1-1----------3-3-------------------|
B|----------------------------------------|

G|------------------------------------3---|
D|------------------------------------3---|
A|----------4-4-4-4-----3-3-36-6--4-3-----|
E|-1-1-1-1-4--------3-3-------------------| [All X2]
B|----------------------------------------|

bow                             Sai che puoi
G|----------------------------|-------------------------------------|
D|-------------------------6--|---8----6----5----4------------------|
A|-8-7-6-5-4-------1-2-4---4--|-----------------------6----8--------|
E|----------------------------|---------------------------------6---|
B|----------------------------|-------------------------------------|

 (whistle)
   G|-----------|
   D|-----------|
   A|-8-6-------|
   E|-----9-8---|
   B|-----------|

tcha tch tch tcha tch tch
G|---------------------------------------|
D|---------------------------------------|
A|------------------------5----7---8-8---|
E|---------------------555-------5-----5-|
B|---------------------------------------|

tcha tch tch tcha tch tch
G|--------------------------------------------------------|
D|--------------------------------------------------------|
A|---1-4-1-4---------------5--7---8-8----------1-4-1-4----|
E|-2--------------------555-----5-----5------2------------|
B|--------------------------------------------------------|

                     (falsetto)  bow
G|----------------------------------------------------|
D|----------------------------------------------------|
A|-2-2-------5-5-------------2-2--------------*3*-----|
E|-----1-3-4---------------------1-3-4---2-1----------|
B|---------------------------------------------1------|

 Escolta..

bow
G|--------------------------------------------|
D|--------------------------------------------|
A|--------------------------------------------|
E|-4-4-4-4-532-2-2-2-421-1-235-5--5-5-679-7---|
B|--------------------------------------------|

                                         senza la lingua
G|------------------------------------------------|
D|-----------*1-1-1-1--11-2-2-11-2-2*-------------|
A|-1-1-1-1----------------------------------------|
E|--------421-------------1-1----1-1--4-4-5h7h8-7-|
B|------------4-4-4-4--44-----44------------------|

            perche la tua lingua e' mia
G|--------------------------------------------------|
D|-----X4-4----------------3------------------------|
A|-1-1----------3------3----------------------------|
E|-------------------------------------1-2-1-3-2-1--|
B|--------------------------------------------------|

                        mia,  Mia.....!
G|-----------------------------------------------------------|
D|-----------------------------------------------------------|
A|-1-------------------------------3-------------------------|
E|-------------------2---------------------------4-----------|
B|-----------------------------------------------------------|

----------------------------------------------------------------------------

Track 6: After School Special
Track Length: 2:47

Verse:

G|----------|-----------|----------|------------|
D|----------|-----------|----------|------------|
A|-0--------|-2---------|-3--------|------------|
E|----------|-----------|----------|-1----------| X2
B|----------|-----------|----------|------------|

Chorus:

G|-----------|----------|---------|-------------|
D|-----------|----------|---------|-------------|
A|-5---------|-3--------|-2-------|-------------|
E|-----------|----------|---------|--4----------|
B|-----------|----------|---------|-------------|

Bridge:
[ Tab from: http://www.guitartabs.cc/tabs/m/mr_bungle/disco_volante_btab.html ]
G|-----------|----------|----------|----------------|
D|-----------|---------5|----------|---------------\|
A|-3---------|----------|----------|----------------|
E|-----------|----------|----------|----------------|
B|-----------|----------|----------|----------------|

Bossanova Section:

G|--------------|--------------|
D|--------------|--------------|
A|--------------|--------------|
E|-0-------7-7\-|--0-----/7-7\-| X2
B|--------------|--------------|

----------------------------------------------------------------------------

Track 7: Phlegmatics
Track Length: 3:16

Drums Intro

G|-----------------------------|-----------------------------------|------|
D|-----------------------------|-----------------------------------|------|
A|-----------------------------|-----------5---7----7---5-------8--|------|
E|------------1--------3-------|-5---6---8------------------8------|-0----|
B|-5---3---1-----5--6-----6--4-|-----------------------------------|------|

(use your fingers)
  <  X  3 > <  X 2 >                                          <  X 2 >
G|-66-66-6-|-55-55-5-|-5/88-88-8-88-88-8-|-8/99-99-9-99-99-9-|-88-88-8-|
D|-66-66-6-|-55-55-5-|-5/88-88-8-88-88-8-|-8/99-99-9-99-99-9-|-88-88-8-|
A|-44-44-4-|-33-33-3-|-3/66-66-6-66-66-6-|-6/77-77-7-77-77-7-|-66-66-6-|
E|---------|---------|-------------------|-------------------|---------|
B|---------|---------|-------------------|-------------------|---------|

    <   X  2  >   <  X 2 >                       <   X  2  > ..teeth
G|-1010-1010-10-|-66-66-6-|-99-99-9-|-66-66-6-|-1414-1414-14-|
D|-1010-1010-10-|-66-66-6-|-99-99-9-|-66-66-6-|-1414-1414-14-|
A|-8-8--8-8--8--|-44-44-4-|-77-77-7-|-44-44-4-|-1212-1212-12-|
E|--------------|---------|---------|---------|--------------|
B|--------------|---------|---------|---------|--------------|

(mess a bit ramdomly with the chords, then stop)

If
not
at
least
useful......

(Dense Disto)

*these are only the notes, but there's a lot going on between them. Lots of vibrato, 
scrapes, harmonics, left hand tapping, string bending, etc.*

       01:50
G|-----|------------------------------------------------------------|
D|-----|------------------------------------------------------------|
A|-/-\-|------------------------------------------------------------|
E|-/-\-|-8----7--6--5----4---3------------3-----------3-------------|
B|-/-\-|-------------------------5--4----------1---3-----3-----5--6-|

Clarinets Interlude

02:58
G|-------------------------------|
D|-------------------------------|
A|-------------------------------|
E|----------3--2------5--7--8----|
B|-1---4-----------5-----------7-|

(Quit Disto)

End

G|-----------|
D|-9---------|
A|----10--10-|
E|-----------|
B|-----------|

----------------------------------------------------------------------------

Track 8: Ma Meeshka Mow Skwoz
Track Length: 6:06

Main Bass Riff:

G|---------------------------------------------------|
D|-------------------------------------2-1-0---------|
A|-------------------------------------------4-3-2-1-|
E|--0--3--0--3--0--3--0--3--0--3--0--3---------------|
B|---------------------------------------------------|

----------------------------------------------------------------------------

Track 9: The Bends
Track Length: 10:28

No Bass until...

Screaming Bends - 5:12

Basic Riff
G|-------------------------------|
D|----------2--1-----------------|
A|---4--3-----------4--3-------1-|
E|--------------------------2----| 2X
B|-------------------------------|

Rest
Then back to Basic Riff

Panic In Blue - 6:09

G|--------------------555555-----|
D|-------------------------------|
A|---2-2--3-3--2-2-----------1-1-|
E|-------------------------------|
B|-------------------------------|

Love On The Event Horizon - 6:52

Riff 1:

G|--------------------|
D|-------------2----1-|
A|---------3----------|
E|-----4--------------|
B|--------------------|

Riff 2:

G|--------------------|
D|-----4--------4-----|
A|---------6--------6-|
E|--------------------|
B|--------------------|

Riff 3:

G|---------------------------|
D|----6--5-------------------|
A|-----------7-------------5-|
E|------------------4--5-----|
B|---------------------------|

----------------------------------------------------------------------------

Track 10: Backstrokin'
Track Length: 2:27

(Synth sounds at start)

G|-----------------|------------|--------------|------------|
D|-----------------|--------1---|----------1---|--------2---|
A|-------------4---|----2-------|----2---2-----|4---2-4---4-|
E|-2---2-5---5-----|4-----------|4-------------|------------| X2
B|-----------------|------------|--------------|------------|

G|-----------|
D|-----6-5---|
A|-----------|
E|---2-----2-| X4
B|-----------|

G|-----------------|------------|--------------|------------|
D|-----------------|--------1---|----------1---|--------2---|
A|-------------4---|----2-------|----2---2-----|4---2-4---4-|
E|-2---2-5---5-----|4-----------|4-------------|------------|
B|-----------------|------------|--------------|------------|

G|-----------------|------------|--------------|----|
D|-----------------|--------1---|----------1---|----|
A|-------------4---|----2-------|----2---2-----|4---|
E|-2---2-5---5-----|4-----------|4-------------|----|
B|-----------------|------------|--------------|----|
  (Synth Bass)

G|---------------|------------|--------------|------------|
D|---------------|------------|--------------|------------|
A|---5---5-------|5---5-------|5---5---5-----|5---5-------|
E|---------5---5-|------5---5-|------5---5---|------5---5-|
B|---------------|------------|--------------|------------|

G-------------------|------------------|------------------|----------------|
D-------------------|------------------|------------------|----------------|
A-7---7---7---7-----|6---6---6---6-----|5---5---5---5-----|6---6---6---6---|
E-----------7---7---|----------6---6---|----------5---5---|----------6---6-|

G|-----------------|----------------|----------------|----------------|--|
D|-----------------|----------------|----------------|----------------|--|
A|-----------------|2---2---2---2---|----------------|----------------|--|
E|-2---2---2---2---|----------------|0---0---0---0---|0---0---0---0---|1-|
B|-----------------|----------------|----------------|----------------|--|
(Only First Time)

G|-------------|----------|----------------|----------------|--|
D|-------------|------4---|----------------|----------------|--|
A|-----------3-|2---2-----|----------------|----------------|--|
E|-2---2-2-----|----------|0---0---0---0---|0---0---0---0---|1-|
B|-------------|----------|----------------|----------------|--|
(Only Second Time)

G|-------------|--|
D|-------------|--|
A|---X-4-5-4---|--|
E|-------------|1-| X4
B|-------------|--|

(Go to Start of Synth Bass)

(Synth sounds at end)

----------------------------------------------------------------------------

Track 11: Platypus
Track Length: 5:07

Part A
G|----------|----------|----------|----------|
D|------3---|------3---|------0---|------0---|
A|----------|----------|----------|----------|
E|-2-2------|-2-2------|-1-1------|-1-1------|
B|----------|----------|----------|----------|

|----------|----------|----------|
|------3---|------0---|----------|
|----------|----------|-----4----|
|-2-2------|-1-1------|-1-1------|
|----------|----------|----------|

|----------|----------|
|------3---|------3---|
|----------|----------|
|-2-2------|-2-2------|
|----------|----------|

|---------------------------|----------------------|
|-------3----3-------3--3---|-----3---3--------3-3-|
|---------------------------|----------------------|
|-2-2-----2-----2-2---------|-2-2---2----2-2-------|
|---------------------------|----------------------|

Part b
G|-2-1---------3-2--------------------0-|
D|-------------------------6/7/6--------|
A|-----1-2--1------3-2--2---------------|
E|------------------------------0h2-1---|
B|--------------------------------------|

|---2---------2-------0-2---------2-------0-|
|-----------0-------------------0-----------|
|-------------------------------------------|
|-3---0h2-1-----0h2-1-----0h2-1-----0h2-1---|
|-------------------------------------------|

Part C1
G|--------------------------------|---------------------------------|
D|-----5---4---2~----------2h4-2~-|-----5---4---2~---------2-4p2-2~-|
A|-0-0---0---0-----0-0-4-4--------|-0-0---0---0-----0-0-3h4-2---2---|
E|--------------------------------|---------------------------------|
B|--------------------------------|---------------------------------|

Part C2
G|--------------------------------|-----------------------------|
D|-----5---4---2~----------2h4-2~-|-----5---4---2~------2-------|
A|-0-0---0---0-----0-0-4-4--------|-0-0---0---0-----4-4---4-----|
E|--------------------------------|-------------------------4-4-| 3X
B|--------------------------------|-----------------------------|

Part D
G|----------------------|-------------------------|---------------|
D|-------5h7-5----------|------10h11\12-5---------|-----5h7-------|
A|-----5--------5-------|---5-------------5-------|---5-----------|
E|-3-6------------6-5-3-|-6-----------------6-5-3-|-6-------0h2-1-|
B|----------------------|-------------------------|---------------|

|---------------------------|---------------|
|-------5h7-5---------------|-6\7\6-------x-|
|-----5--------5----------5-|---------------|
|-3-6------------6-5-3--6---|-------0h2-1---|
|---------------------------|---------------|

Part E1
G|---------2h3----2-------0-|
D|-----2h4------------------| 3X
A|-2h3----------------------|
E|--------------3---0h2-1---|
B|--------------------------|

Part E2
G|---------2h3-|
D|-----2h4-----|
A|-2h3---------|
E|-------------|
B|-------------|

(Repeats)
Part C2 (3X)
Part D
Part E2

G|-------------------------|
D|-----5h7-5---------------|
A|---5--------5----------5-|
E|-6------------6-5-3--6---|
B|-------------------------|

G|-2-------0---------2h3-----------------------------------|
D|---------------2h4-------| 3X (don't play the last E|-3--|
A|-----------2h3-------------------------------------------|  at the end of the 3rd time)
E|---0h2-1---------------3---------------------------------|
B|---------------------------------------------------------|

G|-0-2---------2-------0-2-------0-|
D|-----------0---------------------|
A|---------------------------------|
E|-----0h2-1-----0h2-1-----0h2-1---|
B|---------------------------------|

(Repeat Part E2)

----------------------------------------------------------------------------

Track 12: Merry Go Bye Bye
Track Length: 12:58

*Tune Drop 'D'*

Drum intro

    <    X    2   >        <    X    2   >
G|---------------------|---------------------|
D|------4--4-7--7-4--4-|---------------------|
A|-5--5----------------|------1--1-4--4-1--1-|
D|---------------------|-4--4----------------|
B|---------------------|---------------------|

G|---------------------|--------------------|
D|------2--2-5--5-2--2-|------2--2-5--5-2--5|
A|-3--3----------------|-3--3---------------|
D|---------------------|--------------------|
B|---------------------|--------------------|

G|---------------------|---------------------|
D|---------------------|----------------2----|
A|---------------------|------2--2-5--5----5-|
D|-5--5-5--5-5--5-5--5-|-5--5----------------|
B|---------------------|---------------------|

  broke my...        <    X   2   >
G|--h-------------|---------------------|
D|--12------------|------4--4-7--7-4--4-|
A|----------------|-5--5----------------|
D|----------------|---------------------|
B|----------------|---------------------|
                                                   to

G|----------------------|-----------------------------|
D|----------------------|--------11--11-14--14-11-----|
A|------2--2-5--5-10-11-|-12--12-------------------12-|
D|-5--5-----------------|-----------------------------|
B|----------------------|-----------------------------|


   playyy.....
G|---------------------------------|
D|---------------------------------|
A|--------9--9-12--12-9--0---------|
D|-12--12------------------12--12\-|
B|---------------------------------|


Bring
back
the
  pain                            god
G|---------------------|------------------|
D|------3/4--7--7-4--7-|------------------|
A|-5-------------------|-5--5-2--2--------|
D|---------------------|-----------5~~----|
B|---------------------|------------------|


G|---------------------|---------------------|
D|---------------------|---------------------|
A|-5--5-----------2--2-|-5--5-2--2-----------|
D|------4--4-7--7------|-----------7--7-4--0-|
B|---------------------|---------------------|

                       whole
G|---------------------|-5---------------|
D|---------------------|-3------10-------|
A|------2--2-5--5-2----|--------10-------|
D|-5--5--------------5-|-----------------|
B|---------------------|-----------------|


G|--------------------9-----|-12----------|
D|--------9--9-12--12----12-|-------------|
A|-10--10-------------------|-----10\-----|
D|--------------------------|-------------|
B|--------------------------|-------------|


Bring
back
the
  fame                            bright
G|----------------------|------------------|
D|------3/4--7-7-7-4--7-|------------------|
A|-5--------------------|-5--5-2--2--------|
D|----------------------|-----------5~~----|
B|----------------------|------------------|

G|---------------------|---------------------|
D|---------------------|---------------------|
A|-5--5-----------2--2-|-5--5-2--2-----------|
D|------4--4-7--7------|-----------7--7-4--0-|
B|---------------------|---------------------|

  co   ming      back     to     you
G|------------------------------|----------------------|-------------------|
D|------------------------------|------3/4--7-7-7-4--7-|------4--4-7--7-47-|
A|------------------------------|-5--------------------|-5--5--------------|
D|-5----------------------------|----------------------|-------------------|

   <    X    2    > cries
G|------------------|-----------------|----------------------|
D|------------9-----|-----8-11--8--11-|-----8-11---11-11-8---|
A|------9-12---12-9-|-9---------------|-9------------------9-|
D|-12---------------|-----------------|----------------------|
B|------------------|-----------------|----------------------|


  fine
G|------------------------14-----17------|
D|--------14--14-17-17-17-----17---------|
A|-15--15----------------------------15\-|
D|---------------------------------------|
B|---------------------------------------|


You
got
me
walking
into
  suu...
    <       X       2      >    right      there   by      your...
G|-----------------------------|-h---------------|-----------------|
D|-----------------------------|-12--------------|-----------------|
A|-10--10-10--10-10--10-10--10-|-----------------|-----------------|
D|-----------------------------|-----------------|-----------------|
B|-----------------------------|-----------------|-----------------|

                                 repr...
G|----------------|-4----------------|
D|----4--7--7---8-|----4-------------|
A|-5--------------|------------5h9---|
D|----------------|--------7h9-------|
B|----------------|------------------|

...oduction        of yourme  rry        go
  G|---------------------|---------------------|
  D|-5--------------5--6-|-7-------------------|
  A|------2--2-5--5------|------4----7----4----|
  D|----5----------------|----7----7----7----7-|
  B|---------------------|---------------------|

>>

  BYE BYE!!            st
G|------------|----------|---------|---------|---------|
D|------------|----------|---------|---------|---------|
A|------------|----------|---------|---------|---------|
D|-4--4---7-6-|-3------2-|---------|-1-----4-|-3-0-----|
B|------------|----------|---------|---------|---------|

       G|-----------------|
 Noise D|-----------------|
       A|-----------------|
       D|-0-4-3-2-3-0-4-6-|
       B|-----------------|

01:34                                Part A
G|------------------|----------------------------------------|
D|------------------|----------------------------------------|
A|------------------|-4-3------------------------6-----------|
D|-1-4-3-1-40--00000|------2-4-4-1-3-1-40-00000----8-7-5-0-4-|
B|------------------|----------------------------------------|

G|----------------|----------|---|
D|----------------|-Repeat A-|---|
A|----------------|----------|---|
D|-1-3-1-4-0-00000|----------|-0-|
B|----------------|----------|---|

01:57
G|-----------------------------|---------------------------|
D|-----------------------------|---------------------------|
A|-----------------6-------5---|-----------------4-3-------| Palm Mute All
D|-1-3-1-40-00000----8-7-5---4-|-1-3-1-40-00000------0-4-3-|
B|-----------------------------|---------------------------|

G|----------------------|
D|----------------------|
A|----------------6-----| Palm Mute All
D|-1-3-1-40-00000---8-7-|
B|----------------------|

02:05
     <       X     3      >
G|-----------------------------|
D|-----------------------------|
A|-555-5-5-5-555-5-5-5-555-5-5-| Palm Mute All
D|-----------------------------|
B|-----------------------------|

G|------------------------------------------------------------|
D|------------------------------------------------------------|
A|-5---------5--------5------5------5-------5-------5--5---5--| Palm Mute All
D|---0-000-0---0-0-0-0--0-0-0--0-0-0--0-0-0---0-0-0---0--0--0-|
B|------------------------------------------------------------|

Here to..
03:42
G|----------------------------------|------------------------|
D|----------------------------------|------------------------|
A|----------------------------------|------------------------|  Part B
D|-0-0-3-3-2-2-4-4--7-7-5-5-8-8-4-4-|--5-5-8-8-7-7-4-4-5-5-8\|
B|----------------------------------|------------------------|

G|------------------------------|
D|------------------------------|
A|------------------------------|
D|-3-2-0--4--3-2-0--3--3-2-0--4-|
B|------------------------------|

                                       <     X      2    >
G|----------|------------------------|---------------------|
D|----------|------------------------|---------------------|
A|-Repeat B-|------------------------|---------------------|
D|----------|-5-5-8-8-7-7-4-4-8-8-7--|--3-2-0-4---3-2-0--3-|
B|----------|------------------------|---------------------|

                                       <     X      2    >
G|----------|------------------------|---------------------|-------------|
D|----------|------------------------|---------------------|-------------|
A|-B--------|------------------------|---------------------|-------------|
D|----------|-5-5-8-8-7-7-4-4-8-8-7--|--3-2-0-4---3-2-0--3-|--3-2-0-4444-|
B|----------|------------------------|---------------------|-------------|

04:11
G|-------------------------------------------------------------|
D|-------------------------------------------------------------|
A|-------------------------------------------------------------|
D|0000333322224444--7777555588884444---555588887777444488887\--|
B|-------------------------------------------------------------|
    <   X    N   >
G|----------------------|
D|----------------------|
A|----------------------|
D|---3-2-0--4---3-2-0-3-|
B|----------------------|


-Limbo-


05:24

 ...into space as I die
                         G|--------|
                         D|--------|
                         A|--------|
                         D|-6\-----|
                         B|--------|

Bring
 back
   the
       shame                                   commin'
G|---------------------------------------------------------------------|
D|------------------5---------------------------------------------12\--|
A|------------5----------5----------------5--------3------5---10--10---|
D|------0--7----------------7--0---7---5-------3-------5---------------|
B|---------------------------------------------------------------------|

  pain                                you
G|---------------------------------------------------------------------|
D|----------5----------------------------------------------------------|
A|-------5-----5-----5-----------------5-----m-------------------------|
D|-0--7-----------7-----7------5-------0-----7---0---7---0----7-----0--|
B|---------------------------------------------------------------------|


----------------------------------------------------------------------------

Thank you ladies and gentlemen.

Goodnight.