Mr Bungle - Chemical Marriage Chords & Tabs

 

Chemical Marriage Chords & Tabs

Mr Bungle Chords & Tabs

Version: 2 Type: Bass Tab 0 ratings
1 star 2 stars 3 stars 4 stars 5 stars
comments

Chemical Marriage Bass Tab

   
"Chemical Marriage" by Mr. Bungle

Song #2 on the WB album "Disco Volante"


OK folks.. I'm no Trevor (although in 10 - 12 years I may be), but I've
got
this one bass tabbed pretty accurately.. At least this is how I do it
when
we (Placebo) cover it.. If you have any corrections, contact me via the
Internet at:

Joffe@juno.com

As you know there are many strange keyboard parts, etc. so you'll have to
figure out the exact rythym yourself, but this should help you out..

OK.. Less talk, more tab..

Key:  / - slide up
      r - rest
      b - bend


Figure 1

G:------------------------------------------------------------------------
D:------------------------------------------------------------------------
A:-5---5---5---5---5---5---5---5---3---3---3---3-----3---3---3---3--------
E:---5---5---5---5---5---5---5---5---3---3---3---333---3---3---3---3------


Figure 2

G:------------------------------------------------------------------------
D:---5-r------------------------------------------------------------------
A:-5-----5----------------------------------------------------------------
E:---------3-r------------------------------------------------------------


Figure 3
[ Tab from: http://www.guitartabs.cc/tabs/m/mr_bungle/chemical_marriage_btab_ver_2.html ]
G:------------------------------------------------------------------------
D:------------------------------------------------------------------------
A:------------------------------------------------------------------------
E:-3-3-r-r-3-3-r-r-3-3-r-r-3-3--------------------------------------------


Figure 4

G:-3---3-----4-----3---3-----4-3-5----------------------------------------
D:---3---3-2---2-2---3---3-2-------6---6-----------6-8-10-5---------------
A:-----------------------------------6---6-5---5------------5---5---------
E:-------------------------------------------5---5------------5---5-------
                                                                         
 

Figure 5

G:-3---3-----4-----3---3-----4-3-5----------------------------------------
D:---3---3-2---2-2---3---3-2-------6---6-----------6---6------------------
A:-----------------------------------6---6-5---5-----6---6-5---5----------
E:-------------------------------------------5---5-----------5---5--------


Figure 6

G:------------------------------------------------------------------------
D:------------------------------------------------------------------------
A:------------------------------------------------------------------------
E:-3-3-r-r-3-3-r-r-3-3-r-r-3/8 (b 1/2)
-----------------------------------


OK.. Here's a general rythym for you:



Figure 1
Figure 2 (4x)
Figure 3 
Figure 4
Figure 3

Figure 1
Figure 2 (8x)



Figure 3
Figure 5
Figure 6




OK.. I hoped that helped everyone ;)

- joffe -
Comments