Mr Bungle - Carousel Chords & Tabs

 

Carousel Chords & Tabs

Mr Bungle Chords & Tabs

Version: 1 Type: Tab 0 ratings
1 star 2 stars 3 stars 4 stars 5 stars
comments

Carousel Tab

#----------------------------------PLEASE NOTE---------------------------------#
#This file is the author's own work and represents their interpretation of the #
#song. You may only use this file for private study, scholarship, or research. #
#------------------------------------------------------------------------------#
#


					  CAROUSEL
				Performed by Mr. Bungle
		      	From the Album MR BUNGLE
		Transcribed by Derek Cornelius (des@eisa.net.au)
	

	

This of course is not the whole song, im not a genius! it's just riffs
from the song..... but it's good start. Note that i have included the
CD times of the riffs!!!!

INTRO 

E-|---5----5----x----7----------8---8---x---10---------5---5----x----|
B-|---5----5----x----5----------8---8---x---8---slide--5---5----x----|
G-|---5---------x----5-(Slide)--8-------x---8---down---5--------x----|
D-|---7---------x----7---up-----10------x---10---------7--------x----|
A-|-------------x-----------------------x----------------------------|
E-|------------------------------------------------------------------|


E-|--7----------4---4----x----6----------5---5----x--7----------11---|
B-|--5--(slide)-4---4----x----4--(slide)-5---5----x--5--slide---11---|
G-|--5---down---4--------x----4-----up---5--------x--5--up------11---|
D-|--7----------6--------x----6----------7--------x--7----------13---|
A-|----------------------x-------------------------------------------|
E-|------------------------------------------------------------------|

								   .

E-|-11--x---13------2----4---5----4-----2----4-----5-----------------|
B-|-11--x---11------2----1---2----1-----2----1-----2-----------------|
G-|-----x---11------2----1---2----1-----2----1-----2-----------------|
D-|-----x---13-----(4)--(3)-(2)--(3)---(4)--(3)---(2)----------------|
A-|-----x------------------------------------------------------------|
E-|------------------------------------------------------------------|


Now 1st verse is just those chords but strummed differently.



Ok, I've "tried" to transcribe the start of the trumpets for guitar:

(CD@00:09)

	  pm pm pm			~~~  
E-|------------------------------------------------------------------|
B-|------------------------------------------------------------------|
G-|------------------------------------------------------------------|
D-|----------------2----------------------------------4---2---1-1----|
A-|------3--3--3--------2---3------------2--------0------------------|
E-|--5-----------------------------4--4-----4------------------------|



E-|--------------------------|---------------------------------------|
B-|--------------------------|---------------------------------------|
G-|--------------------------|-------Repeat--2x----------------------|
D-|--2----4--4---------------|---------------------------------------|
A-|--------------------------|---------------------------------------|
E-|-------------4---2--2-----|---------------------------------------|

(CD@00:36)
[ Tab from: http://www.guitartabs.cc/tabs/m/mr_bungle/carousel_tab.html ]
E-|--7---7--x--9---x--10--x--12--------------------------------------|
B-|--7---7--x--9---x--10--x--12--------------------------------------|
G-|--7------x--9---x--10--x--12-----Repeat--4x-----------------------|
D-|--9------x--11--x--12--x--14--------------------------------------|
A-|------------------------------------------------------------------|
E-|------------------------------------------------------------------|


(CD@00:44)

E-|--7-7--7--6-6---7-7-7--6--6------8---8----9---9--9----------------|
B-|--5-5--5--5-5---5-5-5--5--5------10--10---10--10-10---------------|
G-|------------------------------------------------------------------|
D-|------------------------------------------------------------------|
A-|------------------------------------------------------------------|
D-|------------------------------------------------------------------|

Strum in time basically, listen to CD....these chords give the sound 
anyway.



CHORUS

(CD@01:04)
	~~~~~~~		~~~~~~~          ~~~~~~~~~
E-|------------------------------------------------------------------|
B-|------------------------------------------------------------------|
G-|-9--------9---8---7----------7---8--9------------9----11----------|
D-|-9--------9---8---7----------7---8--9------------9----11----------|
A-|-7--------7---6---5----------5---6--7------------7----9-----------|
E-|-0----------------------------------0-----------------------------|

	~~~~~~~~~~~~~~
E-|------------------------------------------------------------------|
B-|------------------------------------------------------------------|
G-|----------------------Listen to it..... repeat in time------------|
D-|--5---------------------------------------------------------------|
A-|--5---------------------------------------------------------------|
E-|--3---------------------------------------------------------------|


(CD@01:51)

E-|------------------------------------------------------------------|
B-|------------------------------------------------------------------|
G-|--------------------------6--6-----2--2---5--5----5--5------------|
D-|--4--4----4--4----4--4----6--6-----2--2---5--5----5--5------------|
A-|--4--4----4--4----4--4----4--4-----0--0---3--3----3--3------------|
E-|--2--2----2--2----2--2--------------------------------------------|


E-|------------------------------------------------------------------|
B-|------------------------------------------------------------------|
G-|------------------------------------------------------------2--2--|
D-|--4---x--x--x-x-x---4--4-------4--4---4--4------------6--6--2--2--|
A-|--4---x--x--x-x-x---4--4-------4--4---4--4----3--3----4--4--0--0--|
E-|--2---x--x--x-x-x---2--2-------2--2---2--2----1--1----------------|



E-|------------------------------------------------------------------|
B-|------------------------------------------------------------------|
G-|--5--5----5-------------------------------------------------------|
D-|--5--5----5-------------------------------------------------------|
A-|--3--3----3-----4-4--3-3---2-2---3--3--4--4--3--3--2--2---3--3----|
E-|----------------2-2--1-1---0-0---1--1--2--2--1--1--0--0---1--1----|



E-|------------------------------------------------------------------|
B-|------------------------------------------------------------------|
G-|-------------------------------Repeat 2x -------------------------|
D-|--------0--2---3--3--0--------------------------------------------|
A-|-2--2-------------------3-----------------------------------------|
E-|------------------------------------------------------------------|


That's it any comments/criticism would br good to hear...........

Write to (des@eisa.net.au)..........






















Comments