Mr Big - To Be With You Chords & Tabs

 

To Be With You Chords & Tabs

Mr Big Chords & Tabs

Version: 4 Type: Tab 0 ratings
1 star 2 stars 3 stars 4 stars 5 stars
comments

To Be With You Tab

-----------------------|----------------------------|
-----sl----5-----------|----------------------------|
-1--2/-4-----6----4----|-4----4----p--h-------------|
-2--4/-6-----7----7----|-4----4--6--4--6------------|
-----------------------|----------------------------|
-----------------------|----------------------------|

    		   ~~~	  h  p p     
------------------4----|-2--4-2-0----0--0-----------|
-----sl----5---~~~-5---|----------0--0--0-----------|
-1--2/-4-----6---------|----------------------------|
-2--4/-6-----7---------|----------------------------|
-----------------------|----------------------------|
-----------------------|---------------------0------|
[ Tab from: http://www.guitartabs.cc/tabs/m/mr_big/to_be_with_you_tab_ver_4.html ]
    		
-----------------------|----------------------------|
-----sl----5-----------|--7----9--9----------12-10--|
-1--2/-4-----6----4----|--8----9--9---------9--9----|
-2--4/-6-----7----7----|--9----11-11----9-11--------|
-----------------------|-------------/11------------|
-----------------------|----------------------------|

		     ~~   h  p p         		 	
--~~~---------------4--|-2--4-2-0--0---12-----------|
-9---10--12---------5--|---------0-----12------sl---|
------------/9---~~----|---------------------11/13--|
---------------11\-----|----------------------------|
-----------------------|----------------------------|
-----------------------|----------------------------| 

Comments