Moxey Jarrod - Mine Chords & Tabs

 

Mine Chords & Tabs

Moxey Jarrod Chords & Tabs

Version: 1 Type: Tab 1 rating
1 star 2 stars 3 stars 4 stars 5 stars
comments

Mine Tab

   
Artist: Jarrod Moxey
Title: Mine
October 3rd 2003
Written for Cara


Chords Used
Capo 1st

    E  Bsus2  C#  Asus2 Esus4 F#sus2
e|--0----0----0-----0----2-----0--
B|--0----0----0-----0----5-----0--
G|--1----4----6-----2----4-----2--
D|--2----4----6-----2----2-----4--
A|--2----2----4-----0----2-----4--
E|--0----x----x-----x----x-----0--

Intro
                                        Strum the E
e|--4-----4--2---3p2--------------0---------0-------
B|----5--------3-----3----------0---0-------0-------
G|--4---4----2---------2------2-------2-----1-------
D|--------------------------2-----------2---2---x2--
A|------------------------0-----------------2-------
E|------------------------------------------0-------

4 Taps on the guitar

Verse Progression

    Esus4 Bsus2  C#   Asus2  E
e|----2-----0-/--0------0----0-------
B|----5-----0-/--0------0----0-------
G|----4-----4-/--6------2----1-------
D|----2-----4-/--6------2----2-------
A|----2-----2-/--4------0----2-------
E|----x-----x-/--x------x----0-------

Bridge Progression

     Asus2    E    Asus2  E    F#sus2  Bsus2
e|-----0------0------0----0--/---0-------0-----
B|-----0------0------0----0--/---0-------0-----
G|-----2------1------2----1--/---2-------4-----
D|-----2------2------2----2--/---4-------4-----
A|-----0------2------0----2--/---4-------2-----
E|-----x------0------x----0--/---0-------0-----


LYRICS

VERSE 1
           (slide from the B to the C)
Esus4              Bsus2 / C#                Asus2                E
If I could write a song, I'd sing about the Sun, Coming up at dawn

Esus4              Bsus2 / C#           Asus2                E
And all the pretty birds, singing their song, gently in the morn.

Esus4                 Bsus2 / C#                Asus2 
And if I could write a tune, I'd sing about the moon, 

                          E
and I'd sing about the stars

Esus4                  Bsus2 / C#               Asus2                    E
But the words I cannot find, come to me all the time, whenever I'm with you


BRIDGE

Asus2              E                Asus2                      E
And all I'll ever want in this life, Is the chance to say you're mine

F#sus2                  Bsus2                     Esus4         Bsus2 / C#
And maybe then you might just see, that we are fine

C#          Asus2      E
yeah we are fine

VERSE 2

Esus4                    Bsus2 / C#                Asus2 
And I wrote about the trees, and how they talked to me, 

                              E
with whispers through their leaves
[ Tab from: http://www.guitartabs.cc/tabs/m/moxey_jarrod/mine_tab.html ]
Esus4                      Bsus2 / C#                Asus2 
And the secrets that they told, of days that were so old, 

                        E
and things you won't believe

Esus4                  Bsus2 / C#                  Asus2  
And I sang about the sky, and the day I thought I'd die, 

                        E
and the feelings that I had

Esus4                       Bsus2 / C#                Asus2 
And the clouds they formed above, showing pictures of love 

                       E
and a message just for me

Saying

BRIDGE

Asus2             E                Asus2                      E
All you'll ever want in this life, Is the chance to say " She's mine"

F#sus2                   Bsus2                         Esus4           Bsus2 / C#
And maybe then she might just see, that you're both fine

C#               Asus2         E
Yeah you're both fine 

VERSE 3
  
Esus4                         Bsus2 / C#                    Asus2                       
And those words I wrote for you, from my heart which was so true, 
                      E
you listened with delight

Esus4                      Bsus2 / C#                      Asus2 
And the way you held me close, and your heart beating with mine, 

                             E
and the kiss you gave that night

Esus4                   Bsus2 / C#                Asus2 
'Cause now we see the truth, as we stare into the pond, 

                             E
and watch the ripples roll away

Esus4              Bsus2 / C#             Asus2                          E
Yes we are so in love, it just took us so long, to get us where we are today


Bridge
Asus2                   E                Asus2                E
And all I'll do for the rest of my life, Is say that you are mine

Asus2                   E                Asus2                E
Yes all I'll do for the rest of my life, Is say that you are mine

F#sus2                   Bsus2                      Esus4        Bsus2 / C#
And now as I hold you close to me, we know we're fine

C#            Asus2                E
We know we're fine, you're always gonna be mine

Esus4              Bsus2 / C#                Asus2                E
(fill in with "we are fine" wherever you feel you want to put it)
Play this twice then into the outro

Outro

                                        Strum the E
e|--4-----4--2---3p2--------------0---------0-------
B|----5--------3-----3----------0---0-------0-------
G|--4---4----2---------2------2-------2-----1-------
D|--------------------------2-----------2---2-------
A|------------------------0-----------------2-------
E|------------------------------------------0-------
Comments