Moving Units - X And Y Chords & Tabs

 

X And Y Chords & Tabs

Moving Units Chords & Tabs

Version: 1 Type: Tab 0 ratings
1 star 2 stars 3 stars 4 stars 5 stars
comments

X And Y Tab

GBand: Moving Units
Song: X and Y
Album: Moving Units EP

PART 1
4 times
e|-------10----------------10----------------10----------------10---------|
B|------------11/13-------------11/13-------------11/13-------------11/13-|
G|----12----------------12----------------12----------------12------------|
D|------------------------------------------------------------------------|
A|------------------------------------------------------------------------|
E|------------------------------------------------------------------------|

e|--------10---------------------|
B|------------11/13-13-13-13-----|
G|----12-------------------------|
D|-------------------------------|
A|-------------------------------|
E|-------------------------------|
[ Tab from: http://www.guitartabs.cc/tabs/m/moving_units/x_and_y_tab.html ]
Part 2
2 times
e|---10-------10-------10----10-------10-------|
B|------11-------11-------11----11-------11----|
G|---------12-------12-------------12-------12-|
D|---------------------------------------------|
A|---------------------------------------------|
E|---------------------------------------------|
then
e|-10---10-10-10-10-10-10-10-10-13-13-13-13-13-13-13-13-|
B|---11-11-11-11-11-11-11-11-11-11-11-11-11-11-11-11-11-|
G|------------------------------------------------------|
D|------------------------------------------------------|
A|------------------------------------------------------|
E|------------------------------------------------------|
then
e|---10-------10-------10----10-------10-------|
B|------11-------11-------11----11-------11----|
G|---------12-------12-------------12-------12-|
D|---------------------------------------------|
A|---------------------------------------------|
E|---------------------------------------------|
then
e|-10---------------------------------------------------|
B|---11-11-11-11-11-11-11-11-11-11-13-13-13-13-13-13-13-|
G|------12-12-12-12-12-12-12-12-12-12-12-12-12-12-12-12-|
D|------------------------------------------------------|
A|------------------------------------------------------|
E|------------------------------------------------------|

Part 3
2 times
e|--------------------------------------|
B|--------------------------------------|
G|--------------------12-12-12-12-12-12-|
D|-10-10-10-10-10-10--------------------|
A|--------------------------------------|
E|--------------------------------------|
then do this once
e|----------------------------------------------------------------------|
B|----------------------------------------------------------------------|
G|------------------12-12-12-12-12-12-----------------14-14-14-14-14-14-|
D|-10-10-10-10-10-10-----------------10-10-10-10-10-10------------------|
A|----------------------------------------------------------------------|
E|----------------------------------------------------------------------|
2 times
e|------------------------------------|
B|------------------------------------|
G|------------------12-12-12-12-12-12-|
D|-10-10-10-10-10-10------------------|
A|------------------------------------|
E|------------------------------------|
then do this once
e|------------------------------------------------------|
B|------------------------------------------------------|
G|------------------12-12-12-12-12-12-------------------|
D|-10-10-10-10-10-10-----------------10-10-10-10-10-10--|
A|------------------------------------------------------|
E|------------------------------------------------------|

Part 4

e|--10-10-10-10-10-10-10-10-10-10-10-10-10-10-13-13-13-13-13-10-10-10-13-13-|
B|--11-11-11-11-11-11-11-11-11-11-11-11-11-11-11-11-11-11-11-11-11-11-11-11-|
G|--12-12-12-12-12-12-12-12-12-12-12-12-12-12-12-12-12-12-12-12-12-12-12-12-|
D|--------------------------------------------------------------------------|
A|--------------------------------------------------------------------------|
E|--------------------------------------------------------------------------|
Comments